Oops, an error
Loading. Please wait.

Ambling Alp Bass Tab

version 2
version 2

Whole song

3,713 views 3 this week
no commentswrite comment
1 2 3 4 5
please rate
add to favorites
launch autoscroll
font size
0
reset
guitar tuner
Autoscroll
slow
fast
+/-
esc
set tempo
stop
Help us to improve Ultimate-Guitar.com Take our survey!
×
Author
Difficulty
intermediate
Artist: Yeasayer
Song: Ambling Alp
Album: Odd Blood
Tabbed by: Dave Sheehan (daveys14 [at] hotmail.com)

Please rate this tab :)

=====
INTRO (this is played with some effect, pitchshifter or something?)
=====

G|--999---------|-999----------|-999----------|11-11-11----------|
D|-----11-11-11-|-----11-11-11-|-----11-11-11-|---------11-11-11-|
A|--------------|--------------|--------------|------------------|
E|--------------|--------------|--------------|------------------|


G|-999----------|--------------|-999----------|--------------|
D|-----11-11-11-|-999----------|-----11-11-11-|-999----------|
A|--------------|-----12-12-12-|--------------|-----12-12-12-|
E|--------------|--------------|--------------|--------------|


==============
VERSE / CHORUS
==============

G|---------------|---------|----------|-----------|
D|------11-11-11-|---------|----------|-----4-4---|
A|--0-0----------|-9---999-|-4----445-|-7--7-7-74-|
E|---------------|---------|----------|-----------|


======
BRIDGE
======

G|--------|----------|--------------|--------|-----------|
D|--------|----------|--------------|--------|-----------|
A|--------|----------|--------------|--------|-77777777--|
E|-777777-|----r-----|-141414141414-|-555555-|-----------|

G|--------|----------|--------------|
D|--------|----------|--------------|
A|--------|----------|--------------|
E|-777777-|----r-----|-141414141414-| x2

G|--------|----------|
D|--------|----------|
A|--------|-77777777-|
E|-555555-|----------|


======
 SOLO (live, this is done on bass)
======

G|-----------------14-16-14------2121-18-21-18-16-1818-161816----|
D|--------12-14-16----------14--------------------------------18-|
A|--12-14--------------------------------------------------------|
E|---------------------------------------------------------------|



G|-161816181618-161821-2121--161816181618-141614161416-14-|
D|--------------------------------------------------------|
A|--------------------------------------------------------|
E|--------------------------------------------------------|



r = rest
/ = slide up
\ = slide down
v = vibrato
~ = hold note
Suggest correction
Give kudos to tab author, rate the tab!
1 2 3 4 5
comments
print report bad tab
guest
You may want to rate the tab now too:
select rating
Wanna post a correction for this tab? Suggest correction