Oops, an error
Loading. Please wait.

Everything I Love The Most Tab

5,698 views 21 this week
1 commentread comment
1 2 3 4 5
x 3
add to favorites
launch autoscroll
font size
0
reset
how to read this tab
guitar tuner
Autoscroll
slow
fast
+/-
esc
set tempo
stop
Help us to improve Ultimate-Guitar.com Take our survey!
×
Difficulty
intermediate
e-----------------------------|
B-----------------------------|
G-----------------------------|
D-----------------------------|
A-5-5---------5-4-3-------0-3-|
E------5-4-3--------0-1-3-----|

just find the right tempo to it
not really 100% sure if it's correct
send feedback @ victor_osvaldo_trujillo@yahoo.com
Suggest correction
Give kudos to tab author, rate the tab!
1 2 3 4 5
comments
print report bad tab
1 comment total.
0 reply
Chongo 133 Jul 08, 2013 03:38 PM

e-----------------------------|
B-----------------------------|
G-----------------------------|
D-----------------------------|
A-5-5---------5-3-----------3-|
E------5-4-3-------0-1-3/5----|

If you don't recognize the riff. It's actually from Billy Joel's Anthony song (Moving out).

guest
You may want to rate the tab now too:
select rating
Wanna post a correction for this tab? Suggest correction