Oops, an error
Loading. Please wait.

Supersonic Alley Cat Tab

112 views 21 this week
no commentswrite comment
1 2 3 4 5
2 more votes to show rating
add to favorites
launch autoscroll
font size
0
reset
how to read this tab
guitar tuner
Autoscroll
slow
fast
+/-
esc
set tempo
stop
Help us to improve Ultimate-Guitar.com Take our survey!
×
Author
Difficulty
-----------------------------------------------
        SUPERSONIC ALLEY CAT - Yelawolf
-----------------------------------------------

Standard Tuning
Tabbed by: Xplisit

These are all eighth notes, so just keep the rhythm going.
The progression repeats throughout the whole song, but I
like to play around a little to make it more interesting.


  G             D                     Am7               C
e|-----------3-|---2-------2---------|-------3---------|-------3---------|
B|-------3---3-|---3-------3---------|-------1---------|-------1---------|
G|---0---------|-------2-------2---0-|---0-------0---0-|---0-------0---0-|
D|-----0---0---|-0---0---0---0---0---|-----2---2---2---|-----2---2---2---|
A|-------------|---------------------|-0---------------|-3---------------|
E|-3-----------|---------------------|-----------------|-----------------|
Suggest correction
Give kudos to tab author, rate the tab!
1 2 3 4 5
comments
print report bad tab
guest
You may want to rate the tab now too:
select rating
Wanna post a correction for this tab? Suggest correction