Oops, an error
Loading. Please wait.

Till Its Gone tab

version 2
version 2

Whole song

  • This is the first acoustic version and version wit... Show more
  • This version is different from others because it p... Show more
3,961 views 66 this week
no commentswrite comment
1 2 3 4 5
x 4
add to favorites
×
Save as Personal and add changes to this tab that will be seen only by you. Learn more ›
×
You can save this tab as Personal to edit and correct it or add notes. All changes will be seen only by you. Learn more »
launch autoscroll
font size
0
reset
how to read this tab
guitar tuner
edit
Autoscroll
slow
fast
+/-
esc
set tempo
stop
Author
Difficulty
About this tab version
This version is different from others because it provides an explaination on all aspects of the song and also provides the first Chorus picking pattern on the website. :). Was this info helpful? Yes No
YelaWolf - Till It's Gone. This tab isn't perfect (Like the studio recording) but all the notes and picking 
are more suited to the acoustic version. - https://www.youtube.com/watch?v=7lhFzmQ-lg8 

[Intro/Verse Tab]
e|------------------|------------------|
B|------------------|------------------|
G|---------------0--|---------------0--|
D|----2-----0h2-----|----2-----0h2-----|
A|-------2----------|-------2----------|
E|-0----------------|-0----------------|
(Tempo is really fast - check out the YouTube link).

[Filler]
This little Filler type thing seperates the Intro and the Verses. I've put 2 down because I'm not quite sure 
which is used but they sound fine whilst playing through the song.

1.                           2.
e|------------------|        e|-----------------|
B|------------------|        B|-----------------|
G|------------------|        G|-----------------|
D|------------------|        D|-----------------|
A|--2---4-----------|        A|--4---7----------|
E|-3-3-5-5----------|        E|-5-5-6-6---------|                
                             
You can use either of these Fillers. Number 2 looks more like what is used in the acoustic, but 
Number 1 sounds a bit better.
(These are played really fast just like the Intro/Verse progression).

[Chorus]
"Ain't much I can do..."
Em 
e|-0-----------0-----|-2-----------2h3p2p0-----|-0-----------0-----|-0-----------0-----|   
B|-0--------0--------|-3--------0--------------|-1--------1--------|-1--------1--------|      
G|-0--0--------------|-2--0--------------------|-0--0--------------|-2--2--------------|
D|-2-----2-----------|-0-----2-----------------|-2-----2-----------|-2-----2-----------|
A|-2-----------------|-0-----------------------|-3-----------------|-0-----------------|
E|-0-----------------|-0-----------------------|-0-----------------|-0-----------------|

Now with the Chorus during the acoustic version the guitarist is just strumming the chords, so you can 
either play it like that using the chords or you can use the little picking pattern. The pattern is the same
for all the chords. (There's a tiny variation on the D chord though). Make sure, if you're using the picking
paterns that you strum each chord once before playing them!
The Chorus, aside from the D chord, is just the same picking progression repeated on each Chord (G-D-B-e).
The little gunshot sound at "If ya checkin' in m*********** check this out.." you can just make by slaping 
the strings or knocking the body of the guitar :)! Listen to the song or the acoustic version to get a feel
for the tempo and all that. Hope this helped!



************************************

| h  Hammer-on
| p  Pull-off

************************************





            
            
Suggest correction
Creating personal tab
Creating personal tab
You can edit any tab online and save it as your Personal.

You can edit, replace or remove any tab part or add personal notes – all changes will be seen only by you.

Personal tabs can be accessed anytime from any device, even offline.
Learn more »
comments
print report bad tab
guest
You may want to rate the tab now too:
select rating
Wanna post a correction for this tab? Suggest correction