Oops, an error
Loading. Please wait.

Oh Yeah Bass Tab

1,397,972 views 9 this week
3 commentsread comments
1 2 3 4 5
x 5
add to favorites
launch autoscroll
font size
0
reset
guitar tuner
Autoscroll
slow
fast
+/-
esc
set tempo
stop
Help us to improve Ultimate-Guitar.com Take our survey!
×
Yello
Oh Yeah (Song from Ferris Bueller)
Bass

Main:
G|-------------------------|-------------------------|
D|-----2-------------------|-----2-------------------|
A|-----------0--1--2-------|-----------0--1--2--1----|
E|--0-----3-----------3--2-|--0-----3--------------3-|

This actually a keyboard ,but hey, it's a cool song.
Any questions, comments, criticism email at
redweasel56@usa.net
Suggest correction
comments
print report bad tab
3 comments total.
-2 reply
Catch 22x 0 Apr 05, 2002 12:00 AM

e -------------------------------------------------------
B -------------------------------------------------------
G -------------------------------------------------------
D -------4-4---------4-4--------4-4---------4-4----------
A --2-2------2-------------------------------------------
E ---------------0-0------0-4-4------4-2-2------2--------

0 reply
Cormacsmall 10 Oct 05, 2013 10:37 AM

What's that?!?! :(

0 reply
ForestHeart 10 Jun 14, 2004 12:00 AM

yeah this is one hell of a cool song and that movie sure kicked ass

guest
You may want to rate the tab now too:
select rating
Wanna post a correction for this tab? Suggest correction