Oops, an error
Loading. Please wait.

Mary tab

version 2
version 2

Whole song

2,157 views 21 this week
1 commentread comment
1 2 3 4 5
1 last vote to show rating
add to favorites
×
Save as Personal and add changes to this tab that will be seen only by you. Learn more ›
×
You can save this tab as Personal to edit and correct it or add notes. All changes will be seen only by you. Learn more »
launch autoscroll
font size
0
reset
how to read this tab
guitar tuner
edit
Autoscroll
slow
fast
+/-
esc
set tempo
stop
Author
Difficulty
-----------------------------------------------------------------
Mary (alternative) ----- Yellow Ostrich
-----------------------------------------------------------------
Tabbed by: Jbongi14
Tuning: EBGDAE (standard)

Tabbed from the youtube video "Yellow Ostrich-Mary(Live from the big ugly yellow couch)"

This is the version he plays in the alternative version of the song, as it is simpler 
and easier to sing over. Really easy but cool sounding song.

If you want to make it more complicated, you can add in the notes from the barre chords 
to make it more complex.

E|-----------------------------------------|
B|-----------------------------------------|
G|-----------------------------------------|
D|---6---6---6-----6----6---6---6-----6----|  x6
A|--------------------4---4---4---4h6------|
E|-4---4---4---4h6-------------------------|

E|---------------------------------------------------------------|
B|---------------------------------------------------------------|
G|---------------------------------------------------------------|
D|---10---10---10---10---8---8---6---6---------------------------|
A|-8----8----8----8----6---6---6---6-----------------------------|x2 then
E|---------------------------------------------------------------|back to top

            
            
Suggest correction
Creating personal tab
Creating personal tab
You can edit any tab online and save it as your Personal.

You can edit, replace or remove any tab part or add personal notes – all changes will be seen only by you.

Personal tabs can be accessed anytime from any device, even offline.
Learn more »
Give kudos to tab author, rate the tab!
1 2 3 4 5
comments
print report bad tab
1 comment total.
0 reply
abhijith2996 10 Oct 17, 2016 09:29 AM

What about the chords bit at the end of the song? I havent been able to figure it out myself...

guest
You may want to rate the tab now too:
select rating
Wanna post a correction for this tab? Suggest correction