Oops, an error
Loading. Please wait.

A Place We Set Afire Tab

229 views 9 this week
1 commentread comment
1 2 3 4 5
x 3
add to favorites
launch autoscroll
font size
0
reset
how to read this tab
guitar tuner
Autoscroll
slow
fast
+/-
esc
set tempo
stop
Help us to improve Ultimate-Guitar.com Take our survey!
×
Author
Difficulty
Tuning
intermediate
C G C F A D
Tabbed by: Joshua Garcia (joshuag523@aol.com)

Tabs for the song: A Place We Set Afire by Yellowcard
Please rate and let me know if you have any corrections. Thank you.


Tuning: Drop C (C G C F A D)


[Intro]
Guitar 1:
D||-------------------------------------------------------------------|
A||-------------------------------------------------------------------|
F||-------------------------------------------------------------------|
C||--5/7\5-3---3---3---3---3---3---3-5/7\5-3---3---3---3---3---3---3--|
G||----------7---7---3---3-------------------7---7---3---3------------|
C||--------------------------3---3---------------------------3---3----|


D||-------------------------------------------------------------------|
A||-------------------------------------------------------------------|
F||-------------------------------------------------------------------|
C||--5/7\5-3---3---3---3---3---3---3-5/7\5-3---3---3---3---3---3---3--| x2
G||----------7---7---3---3-------------------7---7---5---5---7---7----|
C||--------------------------3---3------------------------------------|


Guitar 2:
D||-------------------------------------------------------------------------|
A||-------------------------------------------------------------------------|
F||-------------------------------------------------------------------------|
C||--3---3---3---3---3---3---3---3---10---10---10---10---10---10---10---10--|
G||--3---3---3---3---3---3---3---3---8----8----8----8----8----8----8----8---|
C||--3---3---3---3---3---3---3---3---8----8----8----8----8----8----8----8---|


D||---------------------------------------------------------------------|
A||---------------------------------------------------------------------|
F||---------------------------------------------------------------------|
C||--3---3---3---3---3---3---3---3---10---10---10---10---0---0---0---0--| x2
G||--3---3---3---3---3---3---3---3---8----8----8----8----0---0---0---0--|
C||--3---3---3---3---3---3---3---3---8----8----8----8----0---0---0---0--|



[Verse]
Guitar 1/2:
D||--------|
A||--/8~---|
F||--/10~--|
C||--------|
G||--------|
C||--------|


D||---------------------------------------------------------------------------------------------------|
A||--8--8--8--8--8--8--8--8--6--6--6--6--6--6--6--6--11-11-11-11-11-11-11-11-10-10-10-10-10-10-10-10--|
F||--10-10-10-10-10-10-10-10-10-10-10-10-10-10-10-10-10-10-10-10-10-10-10-10-10-10-10-10-10-10-10-10--|
C||---------------------------------------------------------------------------------------------------|
G||---------------------------------------------------------------------------------------------------|
C||---------------------------------------------------------------------------------------------------|


D||---------------------------------------------------------------------------------------------------|
A||--8--8--8--8--8--8--8--8--6--6--6--6--6--6--6--6--6--6--6--6--6--6--6--6--6--6--6--6--6--6--6--6---|
F||--10-10-10-10-10-10-10-10-10-10-10-10-10-10-10-10-9--9--9--9--9--9--9--9--10-10-10-10-10-10-10-10--|
C||---------------------------------------------------------------------------------------------------|
G||---------------------------------------------------------------------------------------------------|
C||---------------------------------------------------------------------------------------------------|



[Pre-Chorus]
Guitar 1/2:
D||-------------------------------------------------------------------------------|
A||-------------------------------------------------------------------------------|
F||-------------------------------------------------------------------------------|
C||--10---10---10---10---10---10-----------10---10---10---10---10---10---10---10--|
G||--10---10---10---10---10---10-----------8----8----8----8----8----8----8----8---|
C||--10---10---10---10---10---10---5-7-5-3-8----8----8----8----8----8----8----8---|


D||-----------------------------------------------------------------------|
A||-----------------------------------------------------------------------|
F||-----------------------------------------------------------------------|
C||--5---5---5---5---5---5-----------10---10---10---10---10---------------|
G||--5---5---5---5---5---5-----------8----8----8----8----8--------7b8r7~--|
C||--5---5---5---5---5---5---5-7-5-3-8----8----8----8----8----0-0---------|



[Chorus]
Guitar 1/2:
D||---------------------------------------------------------------------------------|
A||---------------------------------------------------------------------------------|
F||--12---12---12---12---12---12---12---12---12---12---12---12---12---12---12---12--|
C||--10---10---10---10---10---10---10---10---10---10---10---10---10---10---10---10--|
G||--8----8----8----8----8----8----8----8----8----8----8----8----8----8----8----8---|
C||---------------------------------------------------------------------------------|


D||------------------------------------------------------------------------------|
A||------------------------------------------------------------------------------|
F||------------------------------------------------------------------------------|
C||--10---10---10---10---10---10---10---10---10---10---10---10-------------------| x2
G||--8----8----8----8----8----8----8----8----8----8----8----8----/7------7b8r7~--|
C||--8----8----8----8----8----8----8----8----8----8----8----8---------10---------|



[Verse]
Guitar 1/2:
D||---------------------------------------------------------------------------------------------------|
A||--8--8--8--8--8--8--8--8--6--6--6--6--6--6--6--6--11-11-11-11-11-11-11-11-10-10-10-10-10-10-10-10--|
F||--10-10-10-10-10-10-10-10-10-10-10-10-10-10-10-10-10-10-10-10-10-10-10-10-10-10-10-10-10-10-10-10--|
C||---------------------------------------------------------------------------------------------------|
G||---------------------------------------------------------------------------------------------------|
C||---------------------------------------------------------------------------------------------------|


D||---------------------------------------------------------------------------------------------------|
A||--8--8--8--8--8--8--8--8--6--6--6--6--6--6--6--6--6--6--6--6--6--6--6--6--6--6--6--6--6--6--6--6---|
F||--10-10-10-10-10-10-10-10-10-10-10-10-10-10-10-10-9--9--9--9--9--9--9--9--10-10-10-10-10-10-10-10--|
C||---------------------------------------------------------------------------------------------------| x2
G||---------------------------------------------------------------------------------------------------|
C||---------------------------------------------------------------------------------------------------|



[Pre-Chorus]
Guitar 1/2:
D||-------------------------------------------------------------------------------|
A||-------------------------------------------------------------------------------|
F||-------------------------------------------------------------------------------|
C||--10---10---10---10---10---10-----------10---10---10---10---10---10---10---10--|
G||--10---10---10---10---10---10-----------8----8----8----8----8----8----8----8---|
C||--10---10---10---10---10---10---5-7-5-3-8----8----8----8----8----8----8----8---|


D||--------------------------------------------------------|
A||--------------------------------------------------------|
F||--------------------------------------------------------|
C||--5---5---5---5---5---5-----------10~-------------------|
G||--5---5---5---5---5---5-----------8~------------7b8r7~--|
C||--5---5---5---5---5---5---5-7-5-3-8~--------0-0---------|



[Chorus]
Guitar 1/2:
D||---------------------------------------------------------------------------------|
A||---------------------------------------------------------------------------------|
F||--12---12---12---12---12---12---12---12---12---12---12---12---12---12---12---12--|
C||--10---10---10---10---10---10---10---10---10---10---10---10---10---10---10---10--|
G||--8----8----8----8----8----8----8----8----8----8----8----8----8----8----8----8---|
C||---------------------------------------------------------------------------------|


D||------------------------------------------------------------------------------|
A||------------------------------------------------------------------------------|
F||------------------------------------------------------------------------------|
C||--10---10---10---10---10---10---10---10---10---10---10---10-------------------|
G||--8----8----8----8----8----8----8----8----8----8----8----8----/7------7b8r7~--|
C||--8----8----8----8----8----8----8----8----8----8----8----8---------10---------|


D||---------------------------------------------------------------------------------|
A||---------------------------------------------------------------------------------|
F||--12---12---12---12---12---12---12---12---12---12---12---12---12---12---12---12--|
C||--10---10---10---10---10---10---10---10---10---10---10---10---10---10---10---10--|
G||--8----8----8----8----8----8----8----8----8----8----8----8----8----8----8----8---|
C||---------------------------------------------------------------------------------|


D||-------------------------------------------------------------------------------|
A||-------------------------------------------------------------------------------|
F||-------------------------------------------------------------------------------|
C||--10---10---10---10---10---10---10---10---10---10---10---10--------------------|
G||--8----8----8----8----8----8----8----8----8----8----8----8----/7------7h8/10~--|
C||--8----8----8----8----8----8----8----8----8----8----8----8---------10----------|



[Bridge]
Guitar 1/2:
D||--------------------------------------|
A||--------------------------------------|
F||--------------------------------------|
C||--10~--------0~--------10~--------7~--|
G||--8~---------0~--------10~--------8~--|
C||--8~---------0~--------10~--------7~--|


Guitar 1:
D||-------------------------------------------------------------------|
A||-------------------------------------------------------------------|
F||-------------------------------------------------------------------|
C||--5/7\5-3---3---3---3---3---3---3-5/7\5-3---3---3---3---3---3---3--|
G||----------7---7---3---3-------------------7---7---3---3------------|
C||--------------------------3---3---------------------------3---3----|


D||-------------------------------------------------------------------|
A||-------------------------------------------------------------------|
F||-------------------------------------------------------------------|
C||--5/7\5-3---3---3---3---3---3---3-5/7\5-3---3---3---3---3---3---3--|
G||----------7---7---3---3-------------------7---7---5---5---7---7----|
C||--------------------------3---3------------------------------------|


Guitar 2:
D||------------------------------------------------------------------------|
A||------------------------------------------------------------------------|
F||------------------------------------------------------------------------|
C||--10~--------0~--------10~--------7~----10--10--10--10--10--10--10--10--|
G||--8~---------0~--------10~--------8~----8---8---8---8---8---8---8---8---|
C||--8~---------0~--------10~--------7~----8---8---8---8---8---8---8---8---|



[Solo]
Guitar 1:
D||-----------------------------------------------------------------------------|
A||-----------------------------------------------------------------------------|
F||--10~--------10/12~-----------------------9-10-12-14-12-10-10/12~---b14r12~--|
C||--x----------x-/x------10~----0~----0~----x-x--x--x--x--x--x-/x--------------|
G||--8~---------8-/10~----x------0~----0~----7-8--10-12-10-8--8-/10~---b12r10~--|
C||-----------------------10~----0~----0~---------------------------------------|


D||-----------------------------------------------------------------------|
A||-----------------------------------------------------------------------|
F||--12/14---12-14-12-10-7~--------10/12~----9~-----------14~----b15-14~--|
C||--x-/x----x--x--x--x--x---------x-/x------x-----10~----x----------x----|
G||--10/12---10-12-10-8--5~--------8-/10~----7~----x------12~----b13-12~--|
C||------------------------------------------------10~--------------------|


D||---------------------------------------------------------|
A||---------------------------------------------------------|
F||--/12~--------12/14---12-14-12-10-7~----9~----10~--------|
C||---x----------x-/x----x--x--x--x--x-----x-----x------8~--|
G||--/8~---------10/12---10-12-10-8--5~----7~----8~-----x---|
C||-----------------------------------------------------8~--|


Guitar 2:
D||----------------------------------------------------------------------------------------|
A||----------------------------------------------------------------------------------------|
F||----------------------------------------------------------------------------------------|
C||--10--10--10--10--10--10--10--10--0--0--0--0--0--0--0--0--10--10--10--10--10--10--7--7--|
G||--8---8---8---8---8---8---8---8---0--0--0--0--0--0--0--0--10--10--10--10--10--10--8--8--|
C||--8---8---8---8---8---8---8---8---0--0--0--0--0--0--0--0--10--10--10--10--10--10--7--7--|


D||----------------------------------------------------------------------------------------|
A||----------------------------------------------------------------------------------------|
F||----------------------------------------------------------------------------------------|
C||--10--10--10--10--10--10--10--10--0--0--0--0--0--0--0--0--10--10--10--10--10--10--7--7--|
G||--8---8---8---8---8---8---8---8---0--0--0--0--0--0--0--0--10--10--10--10--10--10--8--8--|
C||--8---8---8---8---8---8---8---8---0--0--0--0--0--0--0--0--10--10--10--10--10--10--7--7--|


D||----------------------------------|
A||----------------------------------|
F||----------------------------------|
C||--10--10--10--10--10--10--10--10--|
G||--8---8---8---8---8---8---8---8---|
C||--8---8---8---8---8---8---8---8---|



[Interlude]
Guitar 1/2:
D||---------------------------------------------------|
A||--8--8--8--8--8--8--8--8--6--6--6--6--6--6--6--6---|
F||--10-10-10-10-10-10-10-10-10-10-10-10-10-10-10-10--|
C||---------------------------------------------------| x3
G||---------------------------------------------------|
C||---------------------------------------------------|


D||---------------------------|
A||--8--8--8--8--8--8--8--8---|
F||--10-10-10-10-10-10-10-10--|
C||---------------------------|
G||---------------------------|
C||---------------------------|


D||------------------|
A||------------------|
F||------------------|
C||------------------|
G||--/7------7b8r7~--|
C||-------10---------|



[Chorus]
Guitar 1/2:
D||---------------------------------------------------------------------------------|
A||---------------------------------------------------------------------------------|
F||--12---12---12---12---12---12---12---12---12---12---12---12---12---12---12---12--|
C||--10---10---10---10---10---10---10---10---10---10---10---10---10---10---10---10--|
G||--8----8----8----8----8----8----8----8----8----8----8----8----8----8----8----8---|
C||---------------------------------------------------------------------------------|


D||-------------------------------------------------------------------------------|
A||-------------------------------------------------------------------------------|
F||-------------------------------------------------------------------------------|
C||--10---10---10---10---10---10---10---10---10---10---10---10--------------------|
G||--8----8----8----8----8----8----8----8----8----8----8----8----/7------7h8/10~--|
C||--8----8----8----8----8----8----8----8----8----8----8----8---------10----------|


D||---------------------------------------------------------------------------------|
A||---------------------------------------------------------------------------------|
F||--12---12---12---12---12---12---12---12---12---12---12---12---12---12---12---12--|
C||--10---10---10---10---10---10---10---10---10---10---10---10---10---10---10---10--|
G||--8----8----8----8----8----8----8----8----8----8----8----8----8----8----8----8---|
C||---------------------------------------------------------------------------------|


D||------------------------------------------------------------------------------|
A||------------------------------------------------------------------------------|
F||------------------------------------------------------------------------------|
C||--10---10---10---10---10---10---10---10---10---10---10---10-------------------|
G||--8----8----8----8----8----8----8----8----8----8----8----8----/7------7b8r7~--|
C||--8----8----8----8----8----8----8----8----8----8----8----8---------10---------|


D||---------------------------------------------------------------------------------|
A||---------------------------------------------------------------------------------|
F||--12---12---12---12---12---12---12---12---12---12---12---12---12---12---12---12--|
C||--10---10---10---10---10---10---10---10---10---10---10---10---10---10---10---10--|
G||--8----8----8----8----8----8----8----8----8----8----8----8----8----8----8----8---|
C||---------------------------------------------------------------------------------|


D||-------------------------------------------------------------|
A||-------------------------------------------------------------|
F||-------------------------------------------------------------|
C||--10---10---10---10---10---10---10---10---10---10---10---10--|
G||--8----8----8----8----8----8----8----8----8----8----8----8---|
C||--8----8----8----8----8----8----8----8----8----8----8----8---|



[Outro]
Guitar 1/2:
D||------------------------------------------------|
A||------------------------------------------------|
F||------------------------------------------------|
C||------------------------------------------------|
G||--/7------7b8r7~----7------7h8/10~----8~----7~--|
C||-------10---------------10----------------------|


Guitar 1:
D||-------------------------------------------------------------------|
A||-------------------------------------------------------------------|
F||-------------------------------------------------------------------|
C||--5/7\5-3---3---3---3---3---3---3-5/7\5-3---3---3---3---3---3---3--|
G||----------7---7---3---3-------------------7---7---3---3------------|
C||--------------------------3---3---------------------------3---3----|


D||--------------------------------------------------------------------------------------------|
A||--------------------------------------------------------------------------------------------|
F||--------------------------------------------------------------------------------------------|
C||--5/7\5-3---3---3-----3-----3-----3-----3--5/7\5--3------3-------3-------3---------3--------|
G||----------7---7----3-----3---------------------------7-------7-------3--------3-------------|
C||-------------------------------3-----3--------------------------------------------------3~--|


Guitar 2:
D||----------|
A||----------|
F||----------|
C||----------|
G||--(7b8~)--|
C||----------|





*****************************
-Tablature Legend-

 h   hammer-on
 p   pull-off
 b   bend
 pb  pre-bend
 r   release bend
 ~   hold / vibrato
 .   palm mute
 /   slide up
 \   slide down
 *   pinch harmonic
 '   natural harmonic
 x   mute note
 T   tap

*****************************
Suggest correction
Give kudos to tab author, rate the tab!
1 2 3 4 5
comments
print report bad tab
1 comment total.
0 reply
Living Dead 31 875 Oct 08, 2016 01:56 PM

Great song, nice tab. Keep up the good work! :)

guest
You may want to rate the tab now too:
select rating
Wanna post a correction for this tab? Suggest correction