Oops, an error
Loading. Please wait.

Always Summer Tab

version 1
version 1

Whole song

Interactive

18,261 views 21 this week
2 commentsread comments
1 2 3 4 5
x 11
add to favorites
launch autoscroll
font size
0
reset
how to read this tab
guitar tuner
×
Best way to learn
"Always Summer"
Autoscroll
slow
fast
+/-
esc
set tempo
stop
Author
Tuning
  follow
D A D G B E
Drop D

  Intro
  Lead Guitar
E|---0---0---0---0---0---0---0---0-|
B|-9---9---0---7---7---7---7---0---|
G|---------------------------------|
D|---------------------------------|
A|---------------------------------|
D|---------------------------------|

E|----0---0---0---0---0---0---0---0---0---0---0---0---0---0---0---0-|
B|--9---9---0---7---7---7---7---0---5---5---0---4---4---4---4---5---|
G|------------------------------------------------------------------|    2x
D|------------------------------------------------------------------|
A|------------------------------------------------------------------|
D|------------------------------------------------------------------|

  Rhythm/Chorus
E|------------------------------------------------------------|
B|------------------------------------------------------------|
G|-9-9--9-9---------------------------------------------------|
D|-9-9--9-9--9-9--9-9-9-9-9-9--11-11--11-11--9-9--9-9-9-9-9-9-|
A|-7-7--7-7--9-9--9-9-9-9-9-9--11-11--11-11--9-9--9-9-9-9-9-9-|
D|-7-7--7-7--9-9--9-9-9-9-9-9--11-11--11-11--9-9--9-9-9-9-9-9-|

  Verse
E|-----------------------|
B|-----------------------|
G|-9-9--9-9-9------------|
D|-9-9--9-9-9-9-9--9-9-9-|
A|-7-7--7-7-7-9-9--9-9-9-|
D|-7-7--7-7-7-9-9--9-9-9-|

  Chorus
  Lead Guitar
E|----0---0---0---0---0---0---0---0---0---0---0---0---0---0---0---0-|
B|--9---9---0---7---7---7---7---0---5---5---0---4---4---4---4---5---|
G|------------------------------------------------------------------|
D|------------------------------------------------------------------|
A|------------------------------------------------------------------|
D|------------------------------------------------------------------|

  Rhythm
E|------------------------------------------------------------|
B|------------------------------------------------------------|
G|-9-9--9-9---------------------------------------------------|
D|-9-9--9-9--9-9--9-9-9-9-9-9--11-11--11-11--9-9--9-9-9-9-9-9-|
A|-7-7--7-7--9-9--9-9-9-9-9-9--11-11--11-11--9-9--9-9-9-9-9-9-|
D|-7-7--7-7--9-9--9-9-9-9-9-9--11-11--11-11--9-9--9-9-9-9-9-9-|


  Verse (not in rhythm but palm mute the bottom strings of the chords then play the full chord)
E|---------------------------------|
B|---------------------------------|
G|---6-666-----------9-999---------|
D|---6-666---7-777---9-999---9-999-|
A|-4444444---7-777-7777777---9-999-|
D|---------7777777---------9999999-|

E|---------------------------------------|
B|---------------------------------------|
G|---6-666---------9-9--9-9-9------------|
D|---6-666---7-777-9-9--9-9-9-9-9--9-9-9-|
A|-4444444---7-777-7-7--7-7-7-9-9--9-9-9-|
D|---------7777777-7-7--7-7-7-9-9--9-9-9-|

  Pre-Chorus
E|-----------|
B|-----------|
G|-6~--------|
D|-6~-7~-9~--|
A|-4~-7~-9~--|
D|----7~-9~--|

  Chorus
  2nd Part of Chorus
E|---------------------------------------------|
B|---------------------------------------------|
G|----------99999999---------(11's)------------|
D|-77777777-99999999-1111111111111111-99999999-|
A|-77777777-77777777-1111111111111111-99999999-|
D|-77777777----------1111111111111111-99999999-|

  Bridge
E|---------------------------------------------|
B|---------------------------------------------|
G|---------------------------------------------|
D|-------------------9--------------9----9-----|
A|-------11----11------11-9----9------11----11-|
D|-11-11----11----11--------11---11------------|

E|-----------------------------------|
B|-----------------------------------|
G|-----------------------------------|
D|---------------------------9---9---|
A|-----11---11---9---9---9-----7---7-|
D|-7-7----7----7---7---7---7---------|

E|--------------------------------------|
B|--------------------------------------|
G|----------------------------------6-6-|
D|-----4---4-------4---4---6---6----x-x-|
A|-------------2-----2---2---2---2--4-4-|
D|-2-2---2---2---2----------------------|

2nd time is same with out the (6x4) octave notes

  Violin Solo (Kinda hard to tab from an acoustic.  But I'm pretty sure you'll get it)
  Guitar Parts
E|-----------------------------------------------------|
B|-----------------------------------------------------|
G|---------------------------666666666666-888888888888-|
D|-222222222222-777777777777-666666666666-888888888888-|
A|-222222222222-777777777777-444444444444-666666666666-|
D|-222222222222-777777777777---------------------------|
Suggest correction
comments
print report bad tab
2 comments total.
+1 reply
stryker11 10 Jun 12, 2012 09:56 AM

This is a great tab

0 reply
bassbomb1193 320 Feb 13, 2014 04:45 PM

This is what i think they actually play
i let the E strings ring out the whole time because is sounds sexy on acoustic
A_E_C#_B
e|---------|
B|-5-5-5-5-|
G|-4-4-4-4-|
D|-2-2-2-4-|
A|-0-2-4-2-|
E|---0-----|

guest
You may want to rate the tab now too:
select rating
Wanna post a correction for this tab? Suggest correction