Oops, an error
Loading. Please wait.

Always Summer tab

version 3
version 3

Whole song

Interactive

229 views 9 this week
no commentswrite comment
1 2 3 4 5
x 3
add to favorites
×
Save as Personal and add changes to this tab that will be seen only by you. Learn more ›
×
You can save this tab as Personal to edit and correct it or add notes. All changes will be seen only by you. Learn more »
launch autoscroll
font size
0
reset
how to read this tab
guitar tuner
edit
Autoscroll
slow
fast
+/-
esc
set tempo
stop
Author
Difficulty
About this tab version
A detailed and accurate version based on recording. Was this info helpful? Yes No
Alright, after quite a bit of listening through headphones and studying their music video/live performances, I
believe this tab is about as accurate as it gets. Any questions or comments let me know. I know some of these
chords are unconventional, but this is what they are playing. Check out my Guitar Pro tab! It is version 3,
and includes violin! 

[Intro]

Guitar 2        Let strings ring

e|----0---0---0---0---0---0---0---0--| 
B|--9---9---0---7---7---7---7---0----|
G|-----------------------------------|
D|-----------------------------------|
A|-----------------------------------|
E|-----------------------------------|


Guitar 1 comes in:

e|--0-0--0-0-0/0-0--0-0-0-0-0-0----|--0-0--0-0-0-0-0--0-0-0-0-0-0----|
B|--0-0--0-0-0/0-0--0-0-0-0-0-0----|--0-0--0-0-0-0-0--0-0-0-0-0-0----|
G|--2-2--2-2-2/9-9--9-9-9-9-9-9----|--9-9--9-9-9-8-8--8-8-8-8-8-8----| x2
D|--2-2--2-2-2/9-9--9-9-9-9-9-9----|--9-9--9-9-9-9-9--9-9-9-9-9-9----|
A|--0-0--0-0-0/7-7--7-7-7-7-7-7-0--|--x-x--x-x-x-x-x--x-x-x-x-x-x-0--|
E|--0-0--0-0-0/7-7--7-7-7-7-7-7-0--|--9-9--9-9-9-7-7--7-7-7-7-7-7-0--|

Guitar 2        

e|----0---0---0---0---0---0---0---0--|----0---0---0---0---0---0---0---0--|
B|--9---9---0---7---7---7---7---9----|--5---5---0---4---4---4---4---0----|
G|-----------------------------------|-----------------------------------| x2
D|-----------------------------------|-----------------------------------|
A|-----------------------------------|-----------------------------------|
E|-----------------------------------|-----------------------------------|


[Verse] (Guitars rest 3 measures at a time)

Guitars 1 and 2

"The world around, is full of arms still reaching out to me..."

e|---------------------------------|
B|---------------------------------|
G|--4-4--4-4-4---------------------|
D|--2-2--2-2-2-1-1--1-1-1-1-1-1-1--|
A|--2-2--2-2-2-2-2--2-2-2-2-2-2-2--|
E|--0-0--0-0-0---------------------|

"I'm not afraid, 'cause I know I've got nothing left to lose..."

e|-------------------------------|
B|-------------------------------|
G|--4-4--4-4-4-------------------|
D|--2-2--2-2-2-1-1--1-1-1-1-1----|
A|--2-2--2-2-2-2-2--2-2-2-2-2----|
E|--0-0--0-0-0-------------------|


[Chorus]

"I just want to say..."

Guitar 1

e|--0-0--0-0-0/0-0--0-0-0-0-0-0----|--0-0--0-0-0-0-0--0-0-0-0-0-0----|
B|--0-0--0-0-0/0-0--0-0-0-0-0-0----|--0-0--0-0-0-0-0--0-0-0-0-0-0----|
G|--2-2--2-2-2/9-9--9-9-9-9-9-9----|--9-9--9-9-9-8-8--8-8-8-8-8-8----| x4
D|--2-2--2-2-2/9-9--9-9-9-9-9-9----|--9-9--9-9-9-9-9--9-9-9-9-9-9----|
A|--0-0--0-0-0/7-7--7-7-7-7-7-7-0--|--x-x--x-x-x-x-x--x-x-x-x-x-x-0--|
E|--0-0--0-0-0/7-7--7-7-7-7-7-7-0--|--9-9--9-9-9-7-7--7-7-7-7-7-7-0--|

Guitar 2        

e|----0---0---0---0---0---0---0---0--|----0---0---0---0---0---0---0---0--|
B|--9---9---0---7---7---7---7---9----|--5---5---0---4---4---4---4---0----|
G|-----------------------------------|-----------------------------------| x4
D|-----------------------------------|-----------------------------------|
A|-----------------------------------|-----------------------------------|
E|-----------------------------------|-----------------------------------|


[Verse]

Guitar 2 

"I know that I have always walked the line..."

e|----------------------------------|----------------------------------|
B|----------------------------------|----------------------------------|
G|------6-------2-2----2-------2----|--------------4-4----4-------4----|
D|------x-------x-x----x-------x----|--------------x-x----x-------x----|
A|--4-4-4-4-4-4-0-0--0-0-0-0-0-0-0--|------7-------2-2--2-2-2-2-2-2-2--|
E|----------------------------------|--0-0-0-0-0-0---------------------|
PM| * *   * * *      *   * * *   *     * *   * * *      *   * * *   *

"So many scenes are full of words..."

                                     Guitar 1 plays this measure
e|----------------------------------|---------------------------------|
B|----------------------------------|---------------------------------|
G|------6-------2-2----2-------2----|--4-4--4-4-4---------------------|
D|------x-------x-x----x-------x----|--2-2--2-2-2-1-1--1-1-1-1-1-1----|
A|--4-4-4-4-4-4-0-0--0-0-0-0-0-0-0--|--2-2--2-2-2-2-2--2-2-2-2-2-2----|
E|----------------------------------|--0-0--0-0-0------------------0--|
PM| * *   * * *      *   * * *   *     

"But here you are; forgiving me again..."

e|--------------0-0-0---0-------0----|-----------------------------------|
B|--------------0-0-0---0-------0----|-----------------------------------|
G|------4-4-4-4-4-4-4-4-4-4-4-4-4-4--|------4-------4-4-4---4-------4----|
D|--6-6-6-6-6-6-4-4-4-4-2-2-2-2-2-2--|--2-2-2-2-2-2-4-4-4-4-4-2-1-1-1-1--|
A|--4-4-7-7-7-7-0-0-0-0-0-0-0-0-0-0--|--2-2-2-2-2-2-2-2-2-2-2-2-2-2-2-2--|
E|-----------------------------------|-----------------------------------|
PM| * *   * * *       *   * * *   *     * *   * * *       *   * * *   *

"This is a start of another empty page where I begin..."                                        

                                      Guitar 1 joines in next 2 measures
e|--------------0-0-0---0-------0----|---------------------------------|--0---0---0----|
B|--------------0-0-0---0-------0----|---------------------------------|--0---0---0----|
G|------4-4-4-4-4-4-4-4-4-4-4-4-4-4--|--4-4--4-4-4---------------------|--9---9---8----|
D|--6-6-6-6-6-6-4-4-4-4-2-2-2-2-2-2--|--2-2--2-2-2-1-1--1-1-1-1-1------|--9---9---9----|
A|--4-4-7-7-7-7-0-0-0-0-0-0-0-0-0-0--|--2-2--2-2-2-2-2--2-2-2-2-2------|--x---0---x----|
E|-----------------------------------|--0-0--0-0-0----------------0-0--|--9-------7----|
PM| * *   * * *       *   * * *   *

[Chorus]

"I just want to say..."

Guitar 1

e|--0-0--0-0-0/0-0--0-0-0-0-0-0----|--0-0--0-0-0-0-0--0-0-0-0-0-0----|
B|--0-0--0-0-0/0-0--0-0-0-0-0-0----|--0-0--0-0-0-0-0--0-0-0-0-0-0----|
G|--2-2--2-2-2/9-9--9-9-9-9-9-9----|--9-9--9-9-9-8-8--8-8-8-8-8-8----| x2
D|--2-2--2-2-2/9-9--9-9-9-9-9-9----|--9-9--9-9-9-9-9--9-9-9-9-9-9----|
A|--0-0--0-0-0/7-7--7-7-7-7-7-7-0--|--x-x--x-x-x-x-x--x-x-x-x-x-x-0--|
E|--0-0--0-0-0/7-7--7-7-7-7-7-7-0--|--9-9--9-9-9-7-7--7-7-7-7-7-7-0--|

Guitar 2        

e|----0---0---0---0---0---0---0---0--|----0---0---0---0---0---0---0---0--|
B|--9---9---0---7---7---7---7---9----|--5---5---0---4---4---4---4---0----|
G|-----------------------------------|-----------------------------------| x2
D|-----------------------------------|-----------------------------------|
A|-----------------------------------|-----------------------------------|
E|-----------------------------------|-----------------------------------|

"I left home but there's one thing that I still know...."

Guitar 1

e|--0-0-0-0-0-0/0-0-0-0-0-0-0-0-0----|--0-0-0-0-0-0-0-0-0-0-0-0-0-0-0----|
B|--0-0-0-0-0-0/0-0-0-0-0-0-0-0-0----|--0-0-0-0-0-0-0-0-0-0-0-0-0-0-0----|
G|--2-2-2-2-2-2/9-9-9-9-9-9-9-9-9----|--9-9-9-9-9-9-8-8-8-8-8-8-8-8-8----| 
D|--2-2-2-2-2-2/9-9-9-9-9-9-9-9-9----|--9-9-9-9-9-9-9-9-9-9-9-9-9-9-9----|
A|--0-0-0-0-0-0/7-7-7-7-7-7-7-7-7-0--|--x-x-x-x-x-x-x-x-x-x-x-x-x-x-x-0--|
E|--0-0-0-0-0-0/7-7-7-7-7-7-7-7-7-0--|--9-9-9-9-9-9-7-7-7-7-7-7-7-7-7-0--|

Guitar 2

e|---------------------------------------------|-----------------------------------------|
B|---------------------------------------------|-----------------------------------------|
G|--9-9-9-9-9-9/13-13-13-13-13-13-13-13-13-13--|--9-9-9-9-9-9-11-11-11-11-11-11-8-8-8-8--|
D|--x-x-x-x-x-x--x--x--x--x--x--x--x--x--x--x--|--x-x-x-x-x-x--x--x--x--x--x--x-x-x-x-x--|
A|--7-7-7-7-7-7/11-11-11-11-11-11-11-11-11-11--|--7-7-7-7-7-7--9--9--9--9--9--9-6-6-6-6--|
E|---------------------------------------------|-----------------------------------------|

"It's always summer in my heart and in my soul..."

Guitar 1

e|--0-0-0-0-0-0/0-0-0-0-0-0-0-0-0----|--0-0-0-0-0-0-0-0-0-0-0-0-0-0-0----|
B|--0-0-0-0-0-0/0-0-0-0-0-0-0-0-0----|--0-0-0-0-0-0-0-0-0-0-0-0-0-0-0----|
G|--2-2-2-2-2-2/9-9-9-9-9-9-9-9-9----|--9-9-9-9-9-9-8-8-8-8-8-8-8-8-8----| 
D|--2-2-2-2-2-2/9-9-9-9-9-9-9-9-9----|--9-9-9-9-9-9-9-9-9-9-9-9-9-9-9----|
A|--0-0-0-0-0-0/7-7-7-7-7-7-7-7-7-0--|--x-x-x-x-x-x-x-x-x-x-x-x-x-x-x-0--|
E|--0-0-0-0-0-0/7-7-7-7-7-7-7-7-7-0--|--9-9-9-9-9-9-7-7-7-7-7-7-7-7-7-0--|

Guitar 2

e|---------------------------------------------|---------------------------------------------|
B|---------------------------------------------|---------------------------------------------|
G|--9-9-9-9-9-9/13-13-13-13-13-13-13-13-13-13--|--9-9-9-9-9-9-11-11-11-11-11-11-11-11-11-11--|
D|--x-x-x-x-x-x--x--x--x--x--x--x--x--x--x--x--|--x-x-x-x-x-x--x--x--x--x--x--x--x--x--x--x--|
A|--7-7-7-7-7-7/11-11-11-11-11-11-11-11-11-11--|--7-7-7-7-7-7--9--9--9--9--9--9--9--9--9--9--|
E|---------------------------------------------|---------------------------------------------|

[Bridge]

"I loved you first. I love you still. I always will..."

Guitar 2 (Repeat riff 2xs)
                                                                           
e|-----------------------------------|-----------------------------------|-----------------------------------|
B|-----------------------------------|-----------------------------------|-----------------------------------|
G|--------------4-----------4--------|--------------4-----------4--------|--------------4-------------4------|
D|------4---6-------4---4-------4----|------4---6-------4---4-------4----|------4---6-------4---4---4--------|
A|--7-7---7---7---7---7---7---7---7--|--7-7---7---7---7---7---7---7---7--|--7-7---7---7---7---7---7-----6-6--|
E|-----------------------------------|-----------------------------------|-----------------------------------|
PM| * * * * * * * * * * * * * * * *     * * * * * * * * * * * * * * * *     * * * * * * * * * * * * * *

[Violin Solo] (My Guitar Pro tab has this arranged for guitar! It's version 3)

Guitars 1 and 2

e|-----------------------------------|-------------------------------------|
B|-----------------------------------|-------------------------------------|
G|--4-4-4-4-4-4-4-4-4-4-4-4-4-4-4-4--|--2-2-2-2-2-2-2-2-2-2-2-2-2-2-2-2----|
D|--2-2-2-2-2-2-2-2-2-2-2-2-2-2-2-2--|--2-2-2-2-2-2-2-2-2-2-2-2-2-2-2-2----|
A|--2-2-2-2-2-2-2-2-2-2-2-2-2-2-2-2--|--0-0-0-0-0-0-0-0-0-0-0-0-0-0-0-0----|
E|--0-0-0-0-0-0-0-0-0-0-0-0-0-0-0-0--|-------------------------------------|
                                                                             Play 2xs
e|-----------------------------------|-------------------------------------|
B|-----------------------------------|-------------------------------------|
G|--6-6-6-6-6-6-6-6-6-6-6-6-6-6-6-6--|--8-8-8-8-8-8-8-8-8-8-8-8-8-8-8-8----|
D|--6-6-6-6-6-6-6-6-6-6-6-6-6-6-6-6--|--9-9-9-9-9-9-9-9-9-9-9-9-9-9-9-9----|
A|--4-4-4-4-4-4-4-4-4-4-4-4-4-4-4-4--|--x-x-x-x-x-x-x-x-x-x-x-x-x-x-x-x----|
E|--4-4-4-4-4-4-4-4-4-4-4-4-4-4-4-4--|--7-7-7-7-7-7-7-7-7-7-7-7-7-7-7-7----|

[Interlude]

Guitar 2

e|--0-0--0-0-0/0-0--0-0-0-0-0-0----|--0-0--0-0-0-0-0--0-0-0------------|
B|--0-0--0-0-0/0-0--0-0-0-0-0-0----|--0-0--0-0-0-0-0--0-0-0------------|
G|--2-2--2-2-2/9-9--9-9-9-9-9-9----|--9-9--9-9-9-8-8--8-8-8-x-x-x-x----|
D|--2-2--2-2-2/9-9--9-9-9-9-9-9----|--9-9--9-9-9-9-9--9-9-9-x-x-x-x----|
A|--0-0--0-0-0/7-7--7-7-7-7-7-7-0--|--x-x--x-x-x-x-x--x-x-x-x-x-x-x----|
E|--0-0--0-0-0/7-7--7-7-7-7-7-7-0--|--9-9--9-9-9-7-7--7-7-7-x-x-x-x----|

Guitar 1

e|---------------------------------|-----------------------------------|
B|---------------------------------|-----------------------------------|
G|---------------------------------|------------------------x-x-x-x----|
D|---------------------------------|------------------------x-x-x-x----|
A|---------------------------------|------------------------x-x-x-x----|
E|---------------------------------|------------------------x-x-x-x----|

[Chorus]

"I just want to say..."

Guitar 1

e|--0-0--0-0-0/0-0--0-0-0-0-0-0----|--0-0--0-0-0-0-0--0-0-0-0-0-0----|
B|--0-0--0-0-0/0-0--0-0-0-0-0-0----|--0-0--0-0-0-0-0--0-0-0-0-0-0----|
G|--2-2--2-2-2/9-9--9-9-9-9-9-9----|--9-9--9-9-9-8-8--8-8-8-8-8-8----| x2
D|--2-2--2-2-2/9-9--9-9-9-9-9-9----|--9-9--9-9-9-9-9--9-9-9-9-9-9----|
A|--0-0--0-0-0/7-7--7-7-7-7-7-7-0--|--x-x--x-x-x-x-x--x-x-x-x-x-x-0--|
E|--0-0--0-0-0/7-7--7-7-7-7-7-7-0--|--9-9--9-9-9-7-7--7-7-7-7-7-7-0--|

Guitar 2        

e|----0---0---0---0---0---0---0---0--|----0---0---0---0---0---0---0---0--|
B|--9---9---0---7---7---7---7---9----|--5---5---0---4---4---4---4---0----|
G|-----------------------------------|-----------------------------------| x2
D|-----------------------------------|-----------------------------------|
A|-----------------------------------|-----------------------------------|
E|-----------------------------------|-----------------------------------|

"I left home but there's one thing that I still know...."

Guitar 1

e|--0-0-0-0-0-0/0-0-0-0-0-0-0-0-0----|--0-0-0-0-0-0-0-0-0-0-0-0-0-0-0----|
B|--0-0-0-0-0-0/0-0-0-0-0-0-0-0-0----|--0-0-0-0-0-0-0-0-0-0-0-0-0-0-0----|
G|--2-2-2-2-2-2/9-9-9-9-9-9-9-9-9----|--9-9-9-9-9-9-8-8-8-8-8-8-8-8-8----| 
D|--2-2-2-2-2-2/9-9-9-9-9-9-9-9-9----|--9-9-9-9-9-9-9-9-9-9-9-9-9-9-9----|
A|--0-0-0-0-0-0/7-7-7-7-7-7-7-7-7-0--|--x-x-x-x-x-x-x-x-x-x-x-x-x-x-x-0--|
E|--0-0-0-0-0-0/7-7-7-7-7-7-7-7-7-0--|--9-9-9-9-9-9-7-7-7-7-7-7-7-7-7-0--|

Guitar 2

e|---------------------------------------------|-----------------------------------------|
B|---------------------------------------------|-----------------------------------------|
G|--9-9-9-9-9-9/13-13-13-13-13-13-13-13-13-13--|--9-9-9-9-9-9-11-11-11-11-11-11-8-8-8-8--|
D|--x-x-x-x-x-x--x--x--x--x--x--x--x--x--x--x--|--x-x-x-x-x-x--x--x--x--x--x--x-x-x-x-x--|
A|--7-7-7-7-7-7/11-11-11-11-11-11-11-11-11-11--|--7-7-7-7-7-7--9--9--9--9--9--9-6-6-6-6--|
E|---------------------------------------------|-----------------------------------------|

"It's always summer in my heart and in my soul..."

Guitar 1

e|--0-0-0-0-0-0/0-0-0-0-0-0-0-0-0----|--0-0-0-0-0-0-0-0-0-0-0-0-0-0-0----|
B|--0-0-0-0-0-0/0-0-0-0-0-0-0-0-0----|--0-0-0-0-0-0-0-0-0-0-0-0-0-0-0----|
G|--2-2-2-2-2-2/9-9-9-9-9-9-9-9-9----|--9-9-9-9-9-9-8-8-8-8-8-8-8-8-8----| 
D|--2-2-2-2-2-2/9-9-9-9-9-9-9-9-9----|--9-9-9-9-9-9-9-9-9-9-9-9-9-9-9----|
A|--0-0-0-0-0-0/7-7-7-7-7-7-7-7-7-0--|--x-x-x-x-x-x-x-x-x-x-x-x-x-x-x-0--|
E|--0-0-0-0-0-0/7-7-7-7-7-7-7-7-7-0--|--9-9-9-9-9-9-7-7-7-7-7-7-7-7-7-0--|

Guitar 2

e|---------------------------------------------|---------------------------------------------|
B|---------------------------------------------|---------------------------------------------|
G|--9-9-9-9-9-9/13-13-13-13-13-13-13-13-13-13--|--9-9-9-9-9-9-11-11-11-11-11-11-11-11-11-11--|
D|--x-x-x-x-x-x--x--x--x--x--x--x--x--x--x--x--|--x-x-x-x-x-x--x--x--x--x--x--x--x--x--x--x--|
A|--7-7-7-7-7-7/11-11-11-11-11-11-11-11-11-11--|--7-7-7-7-7-7--9--9--9--9--9--9--9--9--9--9--|
E|---------------------------------------------|---------------------------------------------|

[Outro]

"It's always summer in my heart and in my soul...... It's always summer in my heart and in my soul."

Guitar 1

e|--0-0----0-0----0-0-0-0--|--0-0----0-0----0-0-0----|--0-0----0-0----0-0-0-0--|--0-0----0-0----0-0-0-0----|
B|--0-0----0-0----0-0-0-0--|--0-0----0-0----0-0-0----|--0-0----0-0----0-0-0-0--|--0-0----0-0----0-0-0-0----|
G|--2-2----9-9----9-9-9-9--|--9-9----8-8----8-8-8----|--2-2----9-9----9-9-9-9--|--9-9----8-8----8-8-8-8----|
D|--2-2----9-9----9-9-9-9--|--9-9----9-9----9-9-9----|--2-2----9-9----9-9-9-9--|--9-9----9-9----9-9-9-9----|
A|--0-0----7-7----7-7-7-7--|--x-x----x-x----x-x-x-0--|--0-0----7-7----7-7-7-7--|--x-x----x-x----x-x-x-x----|
E|--0-0----7-7----7-7-7-7--|--9-9----7-7----7-7-7-0--|--0-0----7-7----7-7-7-7--|--7-7----7-7----7-7-7-7----|

Guitar 2

e|----0---0---0---0---0---0---0---0--|----0---0---0---0---0---0---0---0--|
B|--9---9---0---7---7---7---7---9----|--5---5---0---4---4---4---4---0----|
G|-----------------------------------|-----------------------------------| x2
D|-----------------------------------|-----------------------------------|
A|-----------------------------------|-----------------------------------|
E|-----------------------------------|-----------------------------------|

----------------
Tablature Legend
----------------

/ = Slide Up
x = Dead Note
* = Palm Mute

----------------

            
            
Suggest correction
Creating personal tab
Creating personal tab
You can edit any tab online and save it as your Personal.

You can edit, replace or remove any tab part or add personal notes – all changes will be seen only by you.

Personal tabs can be accessed anytime from any device, even offline.
Learn more »
Give kudos to tab author, rate the tab!
1 2 3 4 5
comments
print report bad tab
guest
You may want to rate the tab now too:
select rating
Wanna post a correction for this tab? Suggest correction