Oops, an error
Loading. Please wait.

Awakening tab

version 2
version 2

Whole song

Interactive

40 views 6 this week
no commentswrite comment
1 2 3 4 5
1 last vote to show rating
add to favorites
×
Save as Personal and add changes to this tab that will be seen only by you. Learn more ›
×
You can save this tab as Personal to edit and correct it or add notes. All changes will be seen only by you. Learn more »
launch autoscroll
font size
0
reset
how to read this tab
guitar tuner
edit
Autoscroll
slow
fast
+/-
esc
set tempo
stop
About this tab version
More accurate and easier to read. Was this info helpful? Yes No
Tabbed by: Joshua Garcia (joshuag523@aol.com)

Tabs for the song: Awakening by Yellowcard
Please rate and let me know if you have any corrections. Thank you.


Tuning: Standard (E A D G B E)


[Intro]
Guitar 1/2:
E||--------------------------------------------------|--------------------------------------------------|
B||--------------------------------------------------|--------------------------------------------------|
G||--------------------------------------------------|--------------------------------------------------|
D||--------------------------------------------------|--------------------------------------------------|
A||--7--7--7--7--7--7--7--7--7--7--7--7--7--7--7--7--|--7--7--7--7--7--7--7--7--7--7--7--7--7--7--7--7--|
E||--0--0--0--0--0--0--0--0--0--0--0--0--0--0--0--0--|--11-11-11-11-11-11-11-11-11-11-11-11-11-11-11-11-|


E||--------------------------------------------------|--------------------------------------------------|
B||--------------------------------------------------|--------------------------------------------------|
G||--------------------------------------------------|--------------------------------------------------|
D||--------------------------------------------------|--------------------------------------------------| x2
A||--7--7--7--7--7--7--7--7--7--7--7--7--7--7--7--7--|--7--7--7--7--7--7--7--7--7--7--7--7--7--7--7--7--|
E||--9--9--9--9--9--9--9--9--9--9--9--9--9--9--9--9--|--11-11-11-11-11-11-11-11-11-11-11-11-11-11-11-11-|


E||--------------------------------------------------|--------------------------------------------------|
B||--------------------------------------------------|--------------------------------------------------|
G||--------------------------------------------------|--------------------------------------------------|
D||--------------------------------------------------|--------------------------------------------------|
A||--7--7--7--7--7--7--7--7--7--7--7--7--7--7--7--7--|--7--7--7--7--7--7--7--7--------------------------|
E||--5--5--5--5--5--5--5--5--5--5--5--5--5--5--5--5--|--7--7--7--7--7--7--7--7--------------------------|



[Pre-Verse]
Guitar 1/2:
E||-----------------------------------------------|----------------------------------------------|
B||-----------------------------------------------|----------------------------------------------|
G||-----------------------------------------------|----------------------------------------------|
D||-----------------------------------------------|----------------------------------------------|
A||--7--7--7--7----7-----7--7--7--7--7----7----7--|--7--7--7--7----7----7--7--7--7--7----7----7--|
E||--0--0--0--0----0-----0--0--0--0--0----0----0--|--11-11-11-11---0----0--11-11-11-11---0----0--|


E||-----------------------------------------------|----------------------------------------------|
B||-----------------------------------------------|----------------------------------------------|
G||-----------------------------------------------|----------------------------------------------|
D||-----------------------------------------------|----------------------------------------------|
A||--7--7--7--7----7-----7--7--7--7--7----7----7--|--7--7--7--7----7----7--7--7--7--7----7----7--|
E||--9--9--9--9----0-----0--9--9--9--9----0----0--|--11-11-11-11---0----0--11-11-11-11---0----0--|


Guitar 1:
E||--------------------------7-----7-----------------|--11---11-----7-----7-----11---11-----7-----7-----|
B||--9-----9-----7-----7-----------------7-----7-----|--------------------------------------------------|
G||-----9-----9-----9-----9-----9-----9-----9-----9--|-----9-----9-----9-----9-----9-----9-----9-----9--|
D||--------------------------------------------------|--------------------------------------------------|
A||--------------------------------------------------|--------------------------------------------------|
E||--------------------------------------------------|--------------------------------------------------|


Guitar 2:
E||-----------------------------------------------|----------------------------------------------|
B||-----------------------------------------------|----------------------------------------------|
G||-----------------------------------------------|----------------------------------------------|
D||-----------------------------------------------|----------------------------------------------|
A||--7--7--7--7----7-----7--7--7--7--7----7----7--|--7--7--7--7----7----7--7--7--7--7----7----7--|
E||--0--0--0--0----0-----0--0--0--0--0----0----0--|--11-11-11-11---0----0--11-11-11-11---0----0--|


E||-----------------------------------------------|-------------------------------------------------|
B||-----------------------------------------------|-------------------------------------------------|
G||-----------------------------------------------|-------------------------------------------------|
D||-----------------------------------------------|-------------------------------------------------|
A||--7--7--7--7----7-----7--7--7--7--7----7----7--|--7--7--7--7----7----7--7--7--7--7--7--7--7--7---|
E||--9--9--9--9----0-----0--9--9--9--9----0----0--|--11-11-11-11---0----0--11-11-11-11-11-11-11-11--|



[Verse]
Guitar 1 (Left):
E||-------------------------------------------------------------------|
B||-------------------------------------------------------------------|
G||-------------------------------------------------------------------|
D||-------------------------------------------------------------------|
A||-------------------------------------------------------------------|
E||--0-0-0-0-0-0-0-0-0-0-0-0-0-0-0-0-0-0-0-0-0-0-0-0-0-0-0-0-4-4-4-4--|


E||-------------------------------------------------------------------|
B||-------------------------------------------------------------------|
G||-------------------------------------------------------------------|
D||-------------------------------------------------------------------| [x2]
A||-------------------------------------------------------------------|
E||--9-9-9-9-9-9-9-9-9-9-9-9-9-9-9-9-9-9-9-9-9-9-9-9-4-4-4-4-5-5-5-5--|


Guitar 2 (Right):
E||-------------------------------------------------------------------|
B||-------------------------------------------------------------------|
G||-------------------------------------------------------------------|
D||-------------------------------------------------------------------|
A||--7-7-7-7-7-7-7-7-7-7-7-7-7-7-7-7-7-7-7-7-7-7-7-7-7-7-7-7-6-6-6-6--|
E||-------------------------------------------------------------------|


E||-------------------------------------------------------------------|
B||-------------------------------------------------------------------|
G||-------------------------------------------------------------------|
D||-------------------------------------------------------------------|
A||--7-7-7-7-7-7-7-7-7-7-7-7-7-7-7-7-7-7-7-7-7-7-7-7-7-7-7-7-9-9-9-9--|
E||-------------------------------------------------------------------|


E||-------------------------------------------------------------------|
B||-------------------------------------------------------------------|
G||-------------------------------------------------------------------|
D||--6-6-6-6-6-6-6-6-6-6-6-6-6-6-6-6-6-6-6-6-6-6-6-6-6-6-6-6----------|
A||----------------------------------------------------------6-6-6-6--|
E||-------------------------------------------------------------------|


E||-------------------------------------------------------------------|
B||-------------------------------------------------------------------|
G||-------------------------------------------------------------------|
D||-------------------------------------------------------------------|
A||--7-7-7-7-7-7-7-7-7-7-7-7-7-7-7-7-7-7-7-7-7-7-7-7-7-7-7-7-9-9-9-9--|
E||-------------------------------------------------------------------|



[Pre-Chorus]
Guitar 1:
E||------------------------------------------------------|
B||------------------------------------------------------|
G||--8~------------------8/9~----------------------------|
D||--x-------------------x/x-----------------------------|
A||--6~------------------6/7~----------------\\pick-\\---|
E||-------------------------------------------\\slide\\--|


Guitar 2:
E||-------------------------------------------------------|
B||-------------------------------------------------------|
G||--8~-------9~---------9~-----------9~------------------|
D||--9~-------9~-----------9~---------9~------------------|
A||-------------------------------------------\\pick-\\---|
E||--------------------------------------------\\slide\\--|



[Chorus]
Guitar 1/2:
E||--------------------------------------------------|--------------------------------------------------|
B||--------------------------------------------------|--------------------------------------------------|
G||--------------------------------------------------|--------------------------------------------------|
D||--------------------------------------------------|--------------------------------------------------|
A||--7--7--7--7--7--7--7--7--7--7--7--7--7--7--7--7--|--7--7--7--7--7--7--7--7--7--7--7--7--7--7--7--7--|
E||--0--0--0--0--0--0--0--0--0--0--0--0--0--0--0--0--|--11-11-11-11-11-11-11-11-11-11-11-11-11-11-11-11-|


E||--------------------------------------------------|--------------------------------------------------|
B||--------------------------------------------------|--------------------------------------------------|
G||--------------------------------------------------|--------------------------------------------------|
D||--------------------------------------------------|--------------------------------------------------| x2
A||--7--7--7--7--7--7--7--7--7--7--7--7--7--7--7--7--|--7--7--7--7--7--7--7--7--7--7--7--7--7--7--7--7--|
E||--9--9--9--9--9--9--9--9--9--9--9--9--9--9--9--9--|--11-11-11-11-11-11-11-11-11-11-11-11-11-11-11-11-|


E||--------------------------------------------------|--------------------------------------------------|
B||--------------------------------------------------|--------------------------------------------------|
G||--------------------------------------------------|--------------------------------------------------|
D||--------------------------------------------------|--------------------------------------------------|
A||--7--7--7--7--7--7--7--7--7--7--7--7--7--7--7--7--|--7--7--7--7--7--7--7--7--------------------------|
E||--5--5--5--5--5--5--5--5--5--5--5--5--5--5--5--5--|--7--7--7--7--7--7--7--7--------------------------|



[Pre-Verse]
Guitar 1:
E||--------------------------7-----7-----------------|--11---11-----7-----7-----11---11-----7-----7-----|
B||--9-----9-----7-----7-----------------7-----7-----|--------------------------------------------------|
G||-----9-----9-----9-----9-----9-----9-----9-----9--|-----9-----9-----9-----9-----9-----9-----9-----9--|
D||--------------------------------------------------|--------------------------------------------------|
A||--------------------------------------------------|--------------------------------------------------|
E||--------------------------------------------------|--------------------------------------------------|


Guitar 2:
E||-----------------------------------------------|----------------------------------------------|
B||-----------------------------------------------|----------------------------------------------|
G||-----------------------------------------------|----------------------------------------------|
D||-----------------------------------------------|----------------------------------------------|
A||--7--7--7--7----7-----7--7--7--7--7----7----7--|--7--7--7--7----7----7--7--7--7--7----7----7--|
E||--0--0--0--0----0-----0--0--0--0--0----0----0--|--11-11-11-11---0----0--11-11-11-11---0----0--|


E||-----------------------------------------------|-------------------------------------------------|
B||-----------------------------------------------|-------------------------------------------------|
G||-----------------------------------------------|-------------------------------------------------|
D||-----------------------------------------------|-------------------------------------------------|
A||--7--7--7--7----7-----7--7--7--7--7----7----7--|--7--7--7--7----7----7--7--7--7--7--7--7--7--7---|
E||--9--9--9--9----0-----0--9--9--9--9----0----0--|--11-11-11-11---0----0--11-11-11-11-11-11-11-11--|



[Verse]
Guitar 1 (Left):
E||-------------------------------------------------------------------|
B||-------------------------------------------------------------------|
G||-------------------------------------------------------------------|
D||-------------------------------------------------------------------|
A||-------------------------------------------------------------------|
E||--0-0---0-0-0---0-0-0---0-0-0---0-0-0---0-0-0---0-0-0---0-4-4-4-4--|
     . .   . . .   . . .   . . .   . . .   . . .   . . .   .

E||-------------------------------------------------------------------|
B||-------------------------------------------------------------------|
G||-------------------------------------------------------------------|
D||-------------------------------------------------------------------| [x2]
A||-------------------------------------------------------------------|
E||--9-9---9-9-9---9-9-9---9-9-9---9-9-9---9-9-9---9-4-4-4-4-5-5-5-5--|
     . .   . . .   . . .   . . .   . . .   . . .   .


Guitar 2 (Right):
E||-------------------------------------------------------------------|
B||-------------------------------------------------------------------|
G||-------------------------------------------------------------------|
D||-------------------------------------------------------------------|
A||--7-7---7-7-7---7-7-7---7-7-7---7-7-7---7-7-7---7-7-7---7-6-6-6-6--|
E||-------------------------------------------------------------------|
     . .   . . .   . . .   . . .   . . .   . . .   . . .   .

E||-------------------------------------------------------------------|
B||-------------------------------------------------------------------|
G||-------------------------------------------------------------------|
D||-------------------------------------------------------------------|
A||--7-7---7-7-7---7-7-7---7-7-7---7-7-7---7-7-7---7-7-7-7-7-9-9-9-9--|
E||-------------------------------------------------------------------|
     . .   . . .   . . .   . . .   . . .   . . .   .

E||-------------------------------------------------------------------|
B||-------------------------------------------------------------------|
G||-------------------------------------------------------------------|
D||--6-6---6-6-6---6-6-6---6-6-6---6----------------------------------|
A||----------------------------------9-9---9-9-9---9-9-9---9-6-6-6-6--|
E||-------------------------------------------------------------------|
     . .   . . .   . . .   . . .   . . .   . . .   . . .   .

E||-------------------------------------------------------------------|
B||-------------------------------------------------------------------|
G||-------------------------------------------------------------------|
D||-------------------------------------------------------------------|
A||--7-7---7-7-7---7-7-7---7-7-7---7-7-7---7-7-7---7-7-7-7-7-9-9-9-9--|
E||-------------------------------------------------------------------|
     . .   . . .   . . .   . . .   . . .   . . .   .



[Pre-Chorus]
Guitar 1:
E||------------------------------------------------------|
B||------------------------------------------------------|
G||--8~------------------8/9~----------------------------|
D||--x-------------------x/x-----------------------------|
A||--6~------------------6/7~----------------\\pick-\\---|
E||-------------------------------------------\\slide\\--|


Guitar 2:
E||-------------------------------------------------------|
B||-------------------------------------------------------|
G||--8~-------9~---------9~-----------9~------------------|
D||--9~-------9~-----------9~---------9~------------------|
A||-------------------------------------------\\pick-\\---|
E||--------------------------------------------\\slide\\--|



[Chorus]
Guitar 1/2:
E||--------------------------------------------------|--------------------------------------------------|
B||--------------------------------------------------|--------------------------------------------------|
G||--------------------------------------------------|--------------------------------------------------|
D||--------------------------------------------------|--------------------------------------------------|
A||--7--7--7--7--7--7--7--7--7--7--7--7--7--7--7--7--|--7--7--7--7--7--7--7--7--7--7--7--7--7--7--7--7--|
E||--0--0--0--0--0--0--0--0--0--0--0--0--0--0--0--0--|--11-11-11-11-11-11-11-11-11-11-11-11-11-11-11-11-|


E||--------------------------------------------------|--------------------------------------------------|
B||--------------------------------------------------|--------------------------------------------------|
G||--------------------------------------------------|--------------------------------------------------|
D||--------------------------------------------------|--------------------------------------------------| [x2]
A||--7--7--7--7--7--7--7--7--7--7--7--7--7--7--7--7--|--7--7--7--7--7--7--7--7--7--7--7--7--7--7--7--7--|
E||--9--9--9--9--9--9--9--9--9--9--9--9--9--9--9--9--|--11-11-11-11-11-11-11-11-11-11-11-11-11-11-11-11-|


E||--------------------------------------------------|--------------------------------------------------|
B||--------------------------------------------------|--------------------------------------------------|
G||--------------------------------------------------|--------------------------------------------------|
D||--7--7--7--7--7--7--7--7--7--7--7--7--7--7--7--7--|--9--9--9--9--9--9--9--9--9--9--9--9--9--9--9--9--|
A||--x--x--x--x--x--x--x--x--x--x--x--x--x--x--x--x--|--x--x--x--x--x--x--x--x--x--x--x--x--x--x--x--x--|
E||--5--5--5--5--5--5--5--5--5--5--5--5--5--5--5--5--|--7--7--7--7--7--7--7--7--7--7--7--7--7--7--7--7--|


E||--------------------------------------------------|--------------------------------------------------|
B||--------------------------------------------------|--------------------------------------------------|
G||--------------------------------------------------|--------------------------------------------------|
D||--11-11-11-11-11-11-11-11-11-11-11-11-11-11-11-11-|--13-13-13-13-13-13-13-13-9--9--9--9--9--9--9--9--|
A||--x--x--x--x--x--x--x--x--x--x--x--x--x--x--x--x--|--x--x--x--x--x--x--x--x--x--x--x--x--x--x--x--x--|
E||--9--9--9--9--9--9--9--9--9--9--9--9--9--9--9--9--|--11-11-11-11-11-11-11-11-7--7--7--7--7--7--7--7--|


E||--------------------------------------------------|--------------------------------------------------|
B||--------------------------------------------------|--------------------------------------------------|
G||--------------------------------------------------|--------------------------------------------------|
D||--7--7--7--7--7--7--7--7--7--7--7--7--7--7--7--7--|--9--9--9--9--9--9--9--9--9--9--9--9--9--9--9--9--|
A||--x--x--x--x--x--x--x--x--x--x--x--x--x--x--x--x--|--x--x--x--x--x--x--x--x--x--x--x--x--x--x--x--x--|
E||--5--5--5--5--5--5--5--5--5--5--5--5--5--5--5--5--|--7--7--7--7--7--7--7--7--7--7--7--7--7--7--7--7--|



[Interlude]
Guitar 1:
E||------0~----------------0~--------0~--------0~------------------0~--------0~------|
B||----------0~----------------0~--------0~--------0~----------0~--------------------|
G||--9~----------------9~--------8~--------6~----------------6~--------4/6~------8~--|
D||----------------------------------------------------------------------------------| x2
A||----------------------------------------------------------------------------------|
E||----------------------------------------------------------------------------------|


Guitar 2:
E||-------------------|
B||-------------------|
G||-------------------|
D||--2-2-2-2-2-2-2-2--|
A||--2-2-2-2-2-2-2-2--|
E||--0-0-0-0-0-0-0-0--|



[Bridge]
Guitar 1:
E||-------------------------------------------------------------------------------|
B||-------------------------------------------------------------------------------|
G||--9---9---9-9---9---9-9---9---9-8~b~r-6---6---6-6---6---4-2---2---4-6---6---8--|
D||--x---x---x-x---x---x-x---x---x-x-----x---x---x-x---x---x-x---x---x-x---x---x--| x2
A||--7---7---7-7---7---7-7---7---7-6~b~r-4---4---4-4---4---2-0---0---2-4---4---6--|
E||-------------------------------------------------------------------------------|


Guitar 2:
E||-------------------------------------------------------------------|
B||-------------------------------------------------------------------|
G||-------------------------------------------------------------------|
D||--6-6-6-6-6-6-6-6-6-6-6-6-6-6-6-6-6-6-6-6-6-6-6-6-2-2-2-2-2-2-2-2--|
A||--4-4-4-4-4-4-4-4-4-4-4-4-4-4-4-4-4-4-4-4-4-4-4-4-2-2-2-2-2-2-2-2--|
E||--4-4-4-4-4-4-4-4-4-4-4-4-4-4-4-4-4-4-4-4-4-4-4-4-0-0-0-0-0-0-0-0--|


E||-------------------------------------------------------------------|
B||-------------------------------------------------------------------|
G||--2-2-2-2-2-2-2-2-2-2-2-2-2-2-2-2-2-2-2-2-2-2-2-2------------------|
D||--2-2-2-2-2-2-2-2-2-2-2-2-2-2-2-2-2-2-2-2-2-2-2-2-2-2-2-2-2-2-2-2--| [x2]
A||--0-0-0-0-0-0-0-0-0-0-0-0-0-0-0-0-0-0-0-0-0-0-0-0-2-2-2-2-2-2-2-2--|
E||--------------------------------------------------0-0-0-0-0-0-0-0--|



[Chorus]
Guitar 1/2:
E||--------------------------------------------------|--------------------------------------------------|
B||--------------------------------------------------|--------------------------------------------------|
G||--------------------------------------------------|--------------------------------------------------|
D||--------------------------------------------------|--------------------------------------------------|
A||--7-----7-----7-----7-----7-----7-----7-----7-----|--7-----7-----7-----7-----7-----7-----7-----7-----|
E||--0-----0-----0-----0-----0-----0-----0-----0-----|--11----11----11----11----11----11----11----11----|


E||--------------------------------------------------|--------------------------------------------------|
B||--------------------------------------------------|--------------------------------------------------|
G||--------------------------------------------------|--------------------------------------------------|
D||--------------------------------------------------|--------------------------------------------------|
A||--7-----7-----7-----7-----7-----7-----7-----7-----|--7--7--7--7--7--7--7--7--7--7--7--7--7--7--7--7--|
E||--9-----9-----9-----9-----9-----9-----9-----9-----|--11-11-11-11-11-11-11-11-11-11-11-11-11-11-11-11-|


E||--------------------------------------------------|--------------------------------------------------|
B||--------------------------------------------------|--------------------------------------------------|
G||--------------------------------------------------|--------------------------------------------------|
D||--------------------------------------------------|--------------------------------------------------|
A||--7--7--7--7--7--7--7--7--7--7--7--7--7--7--7--7--|--7--7--7--7--7--7--7--7--7--7--7--7--7--7--7--7--|
E||--0--0--0--0--0--0--0--0--0--0--0--0--0--0--0--0--|--11-11-11-11-11-11-11-11-11-11-11-11-11-11-11-11-|


E||--------------------------------------------------|--------------------------------------------------|
B||--------------------------------------------------|--------------------------------------------------|
G||--------------------------------------------------|--------------------------------------------------|
D||--------------------------------------------------|--------------------------------------------------|
A||--7--7--7--7--7--7--7--7--7--7--7--7--7--7--7--7--|--7--7--7--7--7--7--7--7--7--7--7--7--7--7--7--7--|
E||--9--9--9--9--9--9--9--9--9--9--9--9--9--9--9--9--|--11-11-11-11-11-11-11-11-11-11-11-11-11-11-11-11-|


E||--------------------------------------------------|--------------------------------------------------|
B||--------------------------------------------------|--------------------------------------------------|
G||--------------------------------------------------|--------------------------------------------------|
D||--7--7--7--7--7--7--7--7--7--7--7--7--7--7--7--7--|--9--9--9--9--9--9--9--9--9--9--9--9--9--9--9--9--|
A||--x--x--x--x--x--x--x--x--x--x--x--x--x--x--x--x--|--x--x--x--x--x--x--x--x--x--x--x--x--x--x--x--x--|
E||--5--5--5--5--5--5--5--5--5--5--5--5--5--5--5--5--|--7--7--7--7--7--7--7--7--7--7--7--7--7--7--7--7--|


E||--------------------------------------------------|--------------------------------------------------|
B||--------------------------------------------------|--------------------------------------------------|
G||--------------------------------------------------|--------------------------------------------------|
D||--11-11-11-11-11-11-11-11-11-11-11-11-11-11-11-11-|--13-13-13-13-13-13-13-13-9--9--9--9--9--9--9--9--|
A||--x--x--x--x--x--x--x--x--x--x--x--x--x--x--x--x--|--x--x--x--x--x--x--x--x--x--x--x--x--x--x--x--x--|
E||--9--9--9--9--9--9--9--9--9--9--9--9--9--9--9--9--|--11-11-11-11-11-11-11-11-7--7--7--7--7--7--7--7--|


E||--------------------------------------------------|--------------------------------------------------|
B||--------------------------------------------------|--------------------------------------------------|
G||--------------------------------------------------|--------------------------------------------------|
D||--7--7--7--7--7--7--7--7--7--7--7--7--7--7--7--7--|--9--9--9--9--9--9--9--9--------------------------|
A||--x--x--x--x--x--x--x--x--x--x--x--x--x--x--x--x--|--x--x--x--x--x--x--x--x--------------------------|
E||--5--5--5--5--5--5--5--5--5--5--5--5--5--5--5--5--|--7--7--7--7--7--7--7--7--------------------------|



[Outro]
Guitar 1:
E||--------------------------7-----7-----------------|--11---11-----7-----7-----11---11-----7-----7-----|
B||--9-----9-----7-----7-----------------7-----7-----|--------------------------------------------------|
G||-----9-----9-----9-----9-----9-----9-----9-----9--|-----9-----9-----9-----9-----9-----9-----9-----9--|
D||--------------------------------------------------|--------------------------------------------------| x2
A||--------------------------------------------------|--------------------------------------------------|
E||--------------------------------------------------|--------------------------------------------------|


Guitar 2:
E||-----------------------------------------------|----------------------------------------------|
B||-----------------------------------------------|----------------------------------------------|
G||-----------------------------------------------|----------------------------------------------|
D||-----------------------------------------------|----------------------------------------------|
A||--7--7--7--7----7-----7--7--7--7--7----7----7--|--7--7--7--7----7----7--7--7--7--7----7----7--|
E||--0--0--0--0----0-----0--0--0--0--0----0----0--|--11-11-11-11---0----0--11-11-11-11---0----0--|


E||-----------------------------------------------|----------------------------------------------|
B||-----------------------------------------------|----------------------------------------------|
G||-----------------------------------------------|----------------------------------------------|
D||-----------------------------------------------|----------------------------------------------| [x2]
A||--7--7--7--7----7-----7--7--7--7--7----7----7--|--7--7--7--7----7----7--7--7--7--7----7----7--|
E||--9--9--9--9----0-----0--9--9--9--9----0----0--|--11-11-11-11---0----0--11-11-11-11---0----0--|





*****************************
-Tablature Legend-

 h   hammer-on
 p   pull-off
 b   bend
 pb  pre-bend
 r   release bend
 ~   hold / vibrato
 .   palm mute
 /   slide up
 \   slide down
 *   pinch harmonic
 '   natural harmonic
 x   mute note
 T   tap

*****************************

            
            
Suggest correction
Creating personal tab
Creating personal tab
You can edit any tab online and save it as your Personal.

You can edit, replace or remove any tab part or add personal notes – all changes will be seen only by you.

Personal tabs can be accessed anytime from any device, even offline.
Learn more »
Give kudos to tab author, rate the tab!
1 2 3 4 5
comments
print report bad tab
guest
You may want to rate the tab now too:
select rating
Wanna post a correction for this tab? Suggest correction