Oops, an error
Loading. Please wait.

California tab

241 views 1 this week
no commentswrite comment
1 2 3 4 5
2 more votes to show rating
add to favorites
×
Save as Personal and add changes to this tab that will be seen only by you. Learn more ›
×
You can save this tab as Personal to edit and correct it or add notes. All changes will be seen only by you. Learn more »
launch autoscroll
font size
0
reset
how to read this tab
guitar tuner
edit
Autoscroll
slow
fast
+/-
esc
set tempo
stop
Author
Difficulty
[Intro]

e|---------------------------------|---------------------------------|
B|-1---1---0---0---1---1---3---3---|-1---1---0---0---1---1---3---3---|
G|---0---0---0---0---0---0---0---0-|---0---0---0---0---0---0---0---0-|
D|---------------------------------|-3---------------3-------3-------|
A|-3---------------3-------3-------|---------------------------------|
E|---------------------------------|---------------------------------|

e|---------------------------------|---------------------------------|
B|-1---1---0---0---1---1---3---3---|-1---1---0---0---1---1---3---3---|
G|---0---0---0---0---0---0---0---0-|---0---0---0---0---0---0---0---0-|
D|---------------------------------|---------------------------------|
A|-0---------------0-------0-------|---------------------------------|
E|---------------------------------|-1---------------1-------1-------|


[Verse]

e|---------------------------------|---------------------------------|
B|-1---1---1---1---1---1---1---1---|-1---1---1---1---1---1---1---1---|
G|---0---0---0---0---0---0---0---0-|---0---0---0---0---0---0---0---0-|
D|-----------------3---------------|-----------------0---------------|
A|-3-------------------------------|-0-------------------------------|
E|---------------------------------|---------------------------------|

e|---------------------------------|---------------------------------|
B|-1---1---1---1---1---1---1---1---|-1---1---1---1---1---1---1---1---|
G|---0---0---0---0---0---0---0---0-|---0---0---0---0---0---0---0---0-|
D|-----------------3---------------|-----------------0---------------|
A|-3-------------------------------|-0-------------------------------|
E|---------------------------------|---------------------------------|

e|---------------------------------|---------------------------------|
B|-1---1---1---1---1---1---1---1---|-1---1---1---1---1---1---1---1---|
G|---0---0---0---0---0---0---0---0-|---0---0---0---0---0---0---0---0-|
D|-----------------3---------------|-----------------0---------------|
A|-3-------------------------------|-0-------------------------------|
E|---------------------------------|---------------------------------|

e|---------------------------------|---------------------------------|
B|-1---1---1---1---1---1---1---1---|-1---1---1---1---1---1---1---1---|
G|---0---0---0---0---0---0---0---0-|---0---0---0---0---0---0---0---0-|
D|-----------------3---------------|-----------------0---------------|
A|-3-------------------------------|-0-------------------------------|
E|---------------------------------|---------------------------------|


[Chorus]

e|---------------------------------|---------------------------------|
B|-1---1---0---0---1---1---3---3---|-1---1---0---0---1---1---3---3---|
G|---0---0---0---0---0---0---0---0-|---0---0---0---0---0---0---0---0-|
D|---------------------------------|-3---------------3-------3-------|
A|-3---------------3-------3-------|---------------------------------|
E|---------------------------------|---------------------------------|

e|---------------------------------|---------------------------------|
B|-1---1---0---0---1---1---3---3---|-1---1---0---0---1---1---3---3---|
G|---0---0---0---0---0---0---0---0-|---0---0---0---0---0---0---0---0-|
D|---------------------------------|---------------------------------|
A|-0---------------0-------0-------|---------------------------------|
E|---------------------------------|-1---------------1-------1-------|

e|---------------------------------|---------------------------------|
B|-1---1---0---0---1---1---3---3---|-1---1---0---0---1---1---3---3---|
G|---0---0---0---0---0---0---0---0-|---0---0---0---0---0---0---0---0-|
D|---------------------------------|-3---------------3-------3-------|
A|-3---------------3-------3-------|---------------------------------|
E|---------------------------------|---------------------------------|

e|---------------------------------|---------------------------------|
B|-1---1---0---0---1---1---3---3---|-1---1---0---0---1---1---3---3---|
G|---0---0---0---0---0---0---0---0-|---0---0---0---0---0---0---0---0-|
D|---------------------------------|---------------------------------|
A|-0---------------0-------0-------|---------------------------------|
E|---------------------------------|-1---------------1-------1-------|


[Verse]

e|---------------------------------|---------------------------------|
B|-1---1---1---1---1---1---1---1---|-1---1---1---1---1---1---1---1---|
G|---0---0---0---0---0---0---0---0-|---0---0---0---0---0---0---0---0-|
D|-----------------3---------------|-----------------0---------------|
A|-3-------------------------------|-0-------------------------------|
E|---------------------------------|---------------------------------|

e|---------------------------------|---------------------------------|
B|-1---1---1---1---1---1---1---1---|-1---1---1---1---1---1---1---1---|
G|---0---0---0---0---0---0---0---0-|---0---0---0---0---0---0---0---0-|
D|-----------------3---------------|-----------------0---------------|
A|-3-------------------------------|-0-------------------------------|
E|---------------------------------|---------------------------------|

e|---------------------------------|---------------------------------|
B|-1---1---1---1---1---1---1---1---|-1---1---1---1---1---1---1---1---|
G|---0---0---0---0---0---0---0---0-|---0---0---0---0---0---0---0---0-|
D|-----------------3---------------|-----------------0---------------|
A|-3-------------------------------|-0-------------------------------|
E|---------------------------------|---------------------------------|

e|---------------------------------|---------------------------------|
B|-1---1---1---1---1---1---1---1---|-1---1---1---1---1---1---1---1---|
G|---0---0---0---0---0---0---0---0-|---0---0---0---0---0---0---0---0-|
D|-----------------3---------------|-----------------0---------------|
A|-3-------------------------------|-0-------------------------------|
E|---------------------------------|---------------------------------|


[Chorus]

e|---------------------------------|---------------------------------|
B|-1---1---0---0---1---1---3---3---|-1---1---0---0---1---1---3---3---|
G|---0---0---0---0---0---0---0---0-|---0---0---0---0---0---0---0---0-|
D|---------------------------------|-3---------------3-------3-------|
A|-3---------------3-------3-------|---------------------------------|
E|---------------------------------|---------------------------------|

e|---------------------------------|---------------------------------|
B|-1---1---0---0---1---1---3---3---|-1---1---0---0---1---1---3---3---|
G|---0---0---0---0---0---0---0---0-|---0---0---0---0---0---0---0---0-|
D|---------------------------------|---------------------------------|
A|-0---------------0-------0-------|---------------------------------|
E|---------------------------------|-1---------------1-------1-------|

e|---------------------------------|---------------------------------|
B|-1---1---0---0---1---1---3---3---|-1---1---0---0---1---1---3---3---|
G|---0---0---0---0---0---0---0---0-|---0---0---0---0---0---0---0---0-|
D|---------------------------------|-3---------------3-------3-------|
A|-3---------------3-------3-------|---------------------------------|
E|---------------------------------|---------------------------------|

e|---------------------------------|---------------------------------|
B|-1---1---0---0---1---1---3---3---|-1---1---0---0---1---1---3---3---|
G|---0---0---0---0---0---0---0---0-|---0---0---0---0---0---0---0---0-|
D|---------------------------------|---------------------------------|
A|-0---------------0-------0-------|---------------------------------|
E|---------------------------------|-1---------------1-------1-------|


[Bridge]

e|---------------------------------|---------------------------------|
B|-1---1---1---1---1---1---1---1---|-1---1---1---1---1---1---1---1---|
G|---0---0---0---0---0---0---0---0-|---0---0---0---0---0---0---0---0-|
D|---------------------------------|-3---------------2-------0-------|
A|-3---------------2---------------|---------------------------------|
E|---------------------------------|---------------------------------|

e|---------------------------------|---------------------------------|
B|-1---1---1---1---1---1---1---1---|-1---1---1---1---1---1---1---1---|
G|---0---0---0---0---0---0---0---0-|---0---0---0---0---0---0---0---0-|
D|---------------------------------|-3---------------2-------0-------|
A|-3---------------2---------------|---------------------------------|
E|---------------------------------|---------------------------------|

e|---------------------------------|---------------------------------|
B|-1---1---1---1---1---1---1---1---|-1---1---1---1---1---1---1---1---|
G|---0---0---0---0---0---0---0---0-|---0---0---0---0---0---0---0---0-|
D|---------------------------------|-3---------------2-------0-------|
A|-3---------------2---------------|---------------------------------|
E|---------------------------------|---------------------------------|

e|---------------------------------|---------------------------------|
B|-1---1---1---1---1---1---1---1---|-1---1---1---1---1---1---1---1---|
G|---0---0---0---0---0---0---0---0-|---0---0---0---0---0---0---0---0-|
D|---------------------------------|-3---------------2-------0-------|
A|-3---------------2---------------|---------------------------------|
E|---------------------------------|---------------------------------|


[Pre-Chorus]

e|---------------------------------|---------------------------------|
B|-1---1---1---1---1---1---1---1---|-1---1---1---1---1---1---1---1---|
G|---0---0---0---0---0---0---0---0-|---0---0---0---0---0---0---0---0-|
D|---------------------------------|-3---------------3-------3-------|
A|-3---------------3-------3-------|---------------------------------|
E|---------------------------------|---------------------------------|

e|---------------------------------|---------------------------------|
B|-1---1---1---1---1---1---1---1---|-1-------------------------------|
G|---0---0---0---0---0---0---0---0-|---------------------------------|
D|---------------------------------|-3-------------------------------|
A|-0---------------0-------0-------|---------------------------------|
E|---------------------------------|---------------------------------|


[Chorus]

e|---------------------------------|---------------------------------|
B|-1---1---0---0---1---1---3---3---|-1---1---0---0---1---1---3---3---|
G|---0---0---0---0---0---0---0---0-|---0---0---0---0---0---0---0---0-|
D|---------------------------------|-3---------------3-------3-------|
A|-3---------------3-------3-------|---------------------------------|
E|---------------------------------|---------------------------------|

e|---------------------------------|---------------------------------|
B|-1---1---0---0---1---1---3---3---|-1---1---0---0---1---1---3---3---|
G|---0---0---0---0---0---0---0---0-|---0---0---0---0---0---0---0---0-|
D|---------------------------------|---------------------------------|
A|-0---------------0-------0-------|---------------------------------|
E|---------------------------------|-1---------------1-------1-------|

e|---------------------------------|---------------------------------|
B|-1---1---0---0---1---1---3---3---|-1---1---0---0---1---1---3---3---|
G|---0---0---0---0---0---0---0---0-|---0---0---0---0---0---0---0---0-|
D|---------------------------------|-3---------------3-------3-------|
A|-3---------------3-------3-------|---------------------------------|
E|---------------------------------|---------------------------------|

e|---------------------------------|---------------------------------|
B|-1---1---0---0---1---1---3---3---|-1---1---0---0---1---1---3---3---|
G|---0---0---0---0---0---0---0---0-|---0---0---0---0---0---0---0---0-|
D|---------------------------------|---------------------------------|
A|-0---------------0-------0-------|---------------------------------|
E|---------------------------------|-1---------------1-------1-------|


[Outro]

e|---------------------------------|---------------------------------|
B|-1---1---1---1---1---1---1---1---|-1---1---1---1---1---1---1---1---|
G|---0---0---0---0---0---0---0---0-|---0---0---0---0---0---0---0---0-|
D|-----------------3---------------|-----------------0---------------|
A|-3-------------------------------|-0-------------------------------|
E|---------------------------------|---------------------------------|

e|---------------------------------|---------------------------------|
B|-1---1---1---1---1---1---1---1---|-1---1---1---1---1---1---1---1---|
G|---0---0---0---0---0---0---0---0-|---0---0---0---0---0---0---0---0-|
D|-----------------3---------------|-----------------0---------------|
A|-3-------------------------------|-0-------------------------------|
E|---------------------------------|---------------------------------|

e|---------------------------------|
B|-1-------------------------------|
G|-0-------------------------------|
D|-2-------------------------------|
A|-3-------------------------------|
E|---------------------------------|

            
            
Suggest correction
Creating personal tab
Creating personal tab
You can edit any tab online and save it as your Personal.

You can edit, replace or remove any tab part or add personal notes – all changes will be seen only by you.

Personal tabs can be accessed anytime from any device, even offline.
Learn more »
Give kudos to tab author, rate the tab!
1 2 3 4 5
comments
print report bad tab
guest
You may want to rate the tab now too:
select rating
Wanna post a correction for this tab? Suggest correction