Oops, an error
Loading. Please wait.

Empty Apartment Tab

version 2
version 2

Whole song

Interactive

16,913 views 30 this week
3 commentsread comments
1 2 3 4 5
excellent!
x 12
add to favorites
launch autoscroll
font size
0
reset
how to read this tab
guitar tuner
Tab Pro tools
  • play this tab
  • loop segment
  • change instrument
  • show fretboard
  • metronome
×
Best way to learn
"Empty Apartment"
Autoscroll
slow
fast
+/-
esc
set tempo
stop
Contributor
First off, I don't claim this as my work.  I am combining the correct parts
from the tabs that are already on the site.  It doesn't make sense to have
to go to 3 tabs for one song to get the right info for the right parts. 
Most of the tab is from Clumzee_EQ@yahoo.com - at least that's what it says 
at the bottom of his tab.  Solo and violin solo are from Peter Earnshaw. 
The barre chords (5ths) at the end are from a tab by Vince A.

Tuning (Standard) (EADGBe)

   Am  C   G  D/F#  F  Fm  B*  C*  A5  F5
e|-0-|-0-|-3-|-0-|-1-|-1-|-0-|-0-|---|---|
B|-1-|-1-|-3-|-3-|-1-|-1-|-0-|-0-|---|---|
G|-2-|-0-|-0-|-2-|-2-|-1-|-5-|-5-|-2-|---|
D|-2-|-2-|-0-|-0-|-3-|-3-|-4-|-5-|-2-|-3-|
A|-0-|-3-|-2-|-0-|-3-|-3-|-2-|-3-|-0-|-3-|
E|---|---|-3-|-2-|-1-|-1-|---|---|---|-1-|

The B* and C* chords are played during the chorus.

(Verse 1)

         Am
Call me out
           C
You stayed inside
         G
One you love
         D/F#
Is where you hide
         Am        C
Shot me down as I flew by
           G
Crash and burn
         D/F#             F             Fm
I think sometimes you forget where the heart is
       Am           C
Answer no to these questions
         G           D/F#
Let her go, learn a lesson
         Am             C  
It's not me, you're not listening now
           G               D/F#
Can't you see something's missing?
       F              Fm
You forget where the heart is

(chorus)

           C*            B*           
Take you away from that empty apartment
     Am         F  
You stay and forget where the heart is
   C*        B*                   Am         F
Someday if ever you love me you'd say it's okay

(interlude/solo) - ***played with some effects***

E |---------------------------------------------------------------|
B |---------------------------------------------------------------|
G |---------------------------------------------------------------|
D |-12-10-10h12~--12-10-12-10~---10-12/14~~-14-12-14-12--12-10----|
A |---------------------------12----------------------------------|
E |---------------------------------------------------------------|

E |----------------------------------------------------------|
B |----------------------------------------------------------|
G |-----12~--------------------------------------------------|
D |-12b-----12p10h12--10--------10-10-10-9--9-9--------------|
A |-----------------12--12--10/12---------------10-10/12~~---|
E |----------------------------------------------------------|


(verse 2)

        Am          C
Waking up from this nightmare
           G                D/F#
How's your life, what's it like there?
       Am           C    
Is it all what you want it to be?
         G            D/F#
Does it hurt when you think about me?
         F         Fm
And how broken my heart is

(Chorus)

(Bridge) - **one guitar arpeggiates the chords throughout the bridge**
***rest of song played with distortion starting with (C*) ***

       C                   B*      
It's okay to be angry and never let go
    Am                   F    
It only gets harder the more that you know
(C*)                    B*
When you get lonely if no one's around 
     A5                            F5
You know that I'll catch you when you're falling down
C*                     B* 
We came together but you left alone
        A5                       F5
And I know how it feels to walk out on your own
C*                     B* 
Maybe someday I will see you again 
            A5                     F5
And you'll look me in my eyes and call me your friend

(Violin solo)

E -------------------------------------------------------------------------|
B ------17~------17-18-17------------17-18-17-18-17-18-20-18-17-18---------|
G -17-19-----17-19----------19-17--19-------------------------------19--17-|
D -------------------------------------------------------------------------|
A -------------------------------------------------------------------------|
E -------------------------------------------------------------------------|

E -----------------------------------------------------------20~~~------|
B --------------------------------------17-18-20~~-----20~~-------------|
G -----17------------17-----------17-19-------------17------------------|
D --17----17-17---17----17-17--17---------------------------------------|
A ----------------------------------------------------------------------|
E ----------------------------------------------------------------------|

(Chorus)
      C*    B*  A5  F5
It's okay
      C*    B*  A5  F5
It's okay

****THIS MAY BE EASIER TO READ****

start of last chorus starts on 2nd chord
e|----------------------|
B|----------------------|
G|-444444-222222--------|
D|-555555-222222-333333-|
A|-222222-000000-333333-|
E|---------------111111-|


     play this until the end
e|----------------------------------|
B|----------------------------------|
G|-5555555-4444444-2222222----------|
D|-5555555-5555555-2222222-33333333-|
A|-3333333-2222222-0000000-33333333-|
E|-------------------------11111111-|
comments
print report bad tab
3 comments total.
0 reply
Trey3 wrote on February 17 2010, 02:18 pm

I like it alot. thanks

0 reply
oh rachelle wrote on February 28 2011, 07:51 pm

Solo's pretty close but missing notes.

0 reply
N04Hz_Ark wrote on November 21 2015, 12:08 am

B should be a B minor (Bm)

I want to post or [tab]
guest
You may want to rate the tab now too:
select rating
Please do not post tabs as comments. Select "correction" instead!