Oops, an error
Loading. Please wait.

Empty Apartment Bass Tab

version 4
version 4

Whole song

Interactive

379 views 3 this week
no commentswrite comment
1 2 3 4 5
please rate
add to favorites
launch autoscroll
font size
0
reset
guitar tuner
Tab Pro tools
  • play this tab
  • loop segment
  • change instrument
  • show fretboard
  • metronome
×
Best way to learn
"Empty Apartment"
Autoscroll
slow
fast
+/-
esc
set tempo
stop
Contributor
Difficulty
Tuning
novice
D G C F A D
Listen to the song to hear where exactly to play everything
D-Tuned

Intro:
G: ------------------------------|
D: ------------------------------|
A: -0-3-0h2--------0-3-0h2-------|
D: ---------5-2-5----------5-4-4-|

"answer no..."
G: -------|
D: -3-2---|
A: -----3-|
D: -------|

Verse:
G: ------------------------|
D: ------------5-5/7-5-4-0-|
A: -0~-0-2-3~-3------------|
D: ------------------------| x2

Pre-chorus:
G: ---------0-1-0-1-0--|
D: -2-3-2-3----------3-|
A: --------------------|
D: --------------------|

Chorus:
G: --------------------------|---------------------------|
D: --------------------------|---------------------------|
A: -3-3-2--2--0-0------------|-3-3-2--2--0-0-------------|
D: -------5-5-----2-3--3-2-0-|-------5-5-----2-3-5-3-2-3-|

Verse x4 (First 2 are for the solo)
Pre-chorus

Chorus2:
G: --------------------------|-----------------------------|
D: --------------------------|-----------------------------|
A: -3-3-2--2--0-0------------|-3-3-2--2--0-0---------------|
D: -------5-5-----2-3--3-2-0-|-------5-5-----2-3-5-7-9-10~-|

bridge
G: ----------------|
D: ----------------|
A: ----------------|
D: -9~----7~----3~-|

G: ---------------------|
D: ---------------------|
A: -3333-2222-0000------|
D: ----------------3333-| x2

G: -------------------------|
D: -------------------------|
A: -3333-2222-000000--------|
D: ------------------333333-|

G: ---------------------------------|--------------------------------------|
D: ---------------------------------|--------------------------------------|
A: -333333-222--2--00000------------|-333333-222--2--00000-----------------|
D: ------------5-5-------2-3333-2-0-|------------5-5-------2-33-5-77-9-10~-|

G: ----------------------|-------------------------|
D: ----------------------|-------------------------|
A: -2--2--0-0------------|-3-3-2--2--0-0-----------|
D: ---5-5-----2-3--3-2-0-|-------5-5-----2-3-5-3-2-|

G: --------------------------|----------------------------|
D: --------------------------|----------------------------|
A: -3-3-2--2--0-0------------|-3-3-2--2--0-0--------------|
D: -------5-5-----2-3--3-2-0-|-------5-5-----2-3-5-3-2-3~-|
comments
We did not receive enough feedback on this tab! Please rate:
print report bad tab
1 2 3 4 5
I want to post or [tab]
guest
You may want to rate the tab now too:
select rating
Please do not post tabs as comments. Select "correction" instead!