Oops, an error
Loading. Please wait.

Empty Apartment Tab

version 4
version 4

Whole song

Interactive

2,974 views 3 this week
no commentswrite comment
1 2 3 4 5
2 more votes to show rating
add to favorites
launch autoscroll
font size
0
reset
how to read this tab
guitar tuner
Autoscroll
slow
fast
+/-
esc
set tempo
stop
Help us to improve Ultimate-Guitar.com Take our survey!
×
Difficulty
intermediate
EMPTY APARTMENT BY YELLOWCARD

Tuning Standard EADGBE

Tab by AdnanCalbe
Email: Adnan_arq@yahoo.com

I recreated the Tab for Empty Apartment with Lyrics and Timing Guidelines!
Enjoy!

VERSE 1

(0:00-0:07)
Call me out | You stayed inside | One you love | Is where you hide
e|--0-0-0-0-0-0-0---0-0-0-0-0-0-0---3-3-3-3-3-3-3---0-0-0-0-0-0-0-------------|
B|--1-1-1-1-1-1-1---1-1-1-1-1-1-1---3-3-3-3-3-3-3---3-3-3-3-3-3-3-------------|
G|--2-2-2-2-2-2-2---0-0-0-0-0-0-0---0-0-0-0-0-0-0---2-2-2-2-2-2-2-------------|
D|--2-2-2-2-2-2-2---2-2-2-2-2-2-2---0-0-0-0-0-0-0---0-0-0-0-0-0-0-------------|
A|--0-0-0-0-0-0-0---3-3-3-3-3-3-3---2-2-2-2-2-2-2---2-2-2-2-2-2-2-------------|
E|--0-0-0-0-0-0-0---0-0-0-0-0-0-0---3-3-3-3-3-3-3---0-0-0-0-0-0-0-------------|

(0:07-0:15)
Shot me down as  | I flew by  | Crash and burn I think sometimes
e|--0-0-0-0-0-0-0---0-0-0-0-0-0-0---3-3-3-3-3-3-3---0-0-0-0-0-0-0-------------|
B|--1-1-1-1-1-1-1---1-1-1-1-1-1-1---3-3-3-3-3-3-3---3-3-3-3-3-3-3-------------|
G|--2-2-2-2-2-2-2---0-0-0-0-0-0-0---0-0-0-0-0-0-0---2-2-2-2-2-2-2-------------|
D|--2-2-2-2-2-2-2---2-2-2-2-2-2-2---0-0-0-0-0-0-0---0-0-0-0-0-0-0-------------|
A|--0-0-0-0-0-0-0---3-3-3-3-3-3-3---2-2-2-2-2-2-2---2-2-2-2-2-2-2-------------|
E|--0-0-0-0-0-0-0---0-0-0-0-0-0-0---3-3-3-3-3-3-3---0-0-0-0-0-0-0-------------|

(0:16-0:20)
 you forget where the heart is
e|--1-1-1-1-1-1---1-----------------------------------------------------------|
B|--1-1-1-1-1-1---1-----------------------------------------------------------|
G|--2-2-2-2-2-2---1-----------------------------------------------------------|
D|--3-3-3-3-3-3---3-----------------------------------------------------------|
A|--3-3-3-3-3-3---3-----------------------------------------------------------|
E|--1-1-1-1-1-1---1-----------------------------------------------------------|

(0:22-0:30)
Answer no to these questions Let her go, learn a lesson It's not me,
e|--1-1-1-1-1-1---1-----------------------------------------------------------|
B|--1-1-1-1-1-1---1-----------------------------------------------------------|
G|--2-2-2-2-2-2---1-----------------------------------------------------------|
D|--3-3-3-3-3-3---3-----------------------------------------------------------|
A|--3-3-3-3-3-3---3-----------------------------------------------------------|
E|--1-1-1-1-1-1---1-----------------------------------------------------------|

(0:31-0:36)
you're not listening now Can't you see something's missing?
e|--1-1-1-1-1-1---1-----------------------------------------------------------|
B|--1-1-1-1-1-1---1-----------------------------------------------------------|
G|--2-2-2-2-2-2---1-----------------------------------------------------------|
D|--3-3-3-3-3-3---3-----------------------------------------------------------|
A|--3-3-3-3-3-3---3-----------------------------------------------------------|
E|--1-1-1-1-1-1---1-----------------------------------------------------------|

(0:37-0:42)
You forget where the heart is
e|--1-1-1-1-1-1---1-----------------------------------------------------------|
B|--1-1-1-1-1-1---1-----------------------------------------------------------|
G|--2-2-2-2-2-2---1-----------------------------------------------------------|
D|--3-3-3-3-3-3---3-----------------------------------------------------------|
A|--3-3-3-3-3-3---3-----------------------------------------------------------|
E|--1-1-1-1-1-1---1-----------------------------------------------------------|


CHORUS

(0:43-0:50)
 Take you away   | from that empty apartment  | You stay and forget
e|--0-0-0-0-0-0-0---0-0-0-0-0-0-0---0-0-0-0-0-0-0---1-1-1-1-1-1-1-------------|
B|--1-1-1-1-1-1-1---1-1-1-1-1-1-1---1-1-1-1-1-1-1---1-1-1-1-1-1-1-------------|
G|--0-0-0-0-0-0-0---0-0-0-0-0-0-0---2-2-2-2-2-2-2---2-2-2-2-2-2-2-------------|
D|--2-2-2-2-2-2-2---0-0-0-0-0-0-0---2-2-2-2-2-2-2---3-3-3-3-3-3-3-------------|
A|--3-3-3-3-3-3-3---2-2-2-2-2-2-2---0-0-0-0-0-0-0---3-3-3-3-3-3-3-------------|
E|--0-0-0-0-0-0-0---0-0-0-0-0-0-0---0-0-0-0-0-0-0---1-1-1-1-1-1-1-------------|

(0:50-0:58)
 where the heart is | Someday if ever you love me you'd say it's okay
e|--0-0-0-0-0-0-0---0-0-0-0-0-0-0---0-0-0-0-0-0-0---1-1-1-1-1-1-1-------------|
B|--1-1-1-1-1-1-1---1-1-1-1-1-1-1---1-1-1-1-1-1-1---1-1-1-1-1-1-1-------------|
G|--0-0-0-0-0-0-0---0-0-0-0-0-0-0---2-2-2-2-2-2-2---2-2-2-2-2-2-2-------------|
D|--2-2-2-2-2-2-2---0-0-0-0-0-0-0---2-2-2-2-2-2-2---3-3-3-3-3-3-3-------------|
A|--3-3-3-3-3-3-3---2-2-2-2-2-2-2---0-0-0-0-0-0-0---3-3-3-3-3-3-3-------------|
E|--0-0-0-0-0-0-0---0-0-0-0-0-0-0---0-0-0-0-0-0-0---1-1-1-1-1-1-1-------------|

SOLO

(1:00-1:16)
e|------------------------------------------------------------------------------|
B|------------------------------------------------------------------------------|
G|--7-5-5-7--7-5-7-5---5/9-9-9-7~-7\5-7b-8-7-5---5------------------------------|
D|-------------------7-------------------------7---7---7h10-10-10-10\9-9-5/7----|
A|------------------------------------------------------------------------------|
E|------------------------------------------------------------------------------|

(1:17-1:23)
 Waking up from this nightmare How's your life, what's it like there?
e|-----0----------------------0------0------------------------0---------------|
B|------1-----1-------1------3-3------1------1-------1-------3-3--------------|
G|----2--2---0-0-----0-0----2---2---2--2----0-0-----0-0-----2---2-------------|
D|---2------2---2---0---0----------2-------2---2---0---0----------------------|
A|--0------3-------2-------0------0-------3-------2-------0-------------------|
E|----------------------------------------------------------------------------|

(1:23-29)
 Is it all what you want it to be? | Does it hurt
e|-----0----------------------0-----------------------------------------------|
B|------1-----1-------1------3-3----------------------------------------------|
G|----2--2---0-0-----0-0----2---2---------------------------------------------|
D|---2------2---2---0---0-----------------------------------------------------|
A|--0------3-------2-------0--------------------------------------------------|
E|----------------------------------------------------------------------------|

(1:30-1:36)
 when you think about me? And how broken my heart is
e|--1-1-1-1-1-1-1-1-1-1-------------------------------------------------------|
B|--1-1-1-1-1-1-1-1-1-1-------------------------------------------------------|
G|--2-2-2-2-2-2-2-2-2-2-------------------------------------------------------|
D|--3-3-3-3-3-3-3-3-3-3-------------------------------------------------------|
A|--3-3-3-3-3-3-3-3-3-3-------------------------------------------------------|
E|--2-2-2-2-2-2-2-2-2-2-------------------------------------------------------|

CHORUS

(1:37-1:44)
 Take you away   | from that empty apartment  | You stay and forget
e|--0-0-0-0-0-0-0---0-0-0-0-0-0-0---0-0-0-0-0-0-0---1-1-1-1-1-1-1-------------|
B|--1-1-1-1-1-1-1---1-1-1-1-1-1-1---1-1-1-1-1-1-1---1-1-1-1-1-1-1-------------|
G|--0-0-0-0-0-0-0---0-0-0-0-0-0-0---2-2-2-2-2-2-2---2-2-2-2-2-2-2-------------|
D|--2-2-2-2-2-2-2---0-0-0-0-0-0-0---2-2-2-2-2-2-2---3-3-3-3-3-3-3-------------|
A|--3-3-3-3-3-3-3---2-2-2-2-2-2-2---0-0-0-0-0-0-0---3-3-3-3-3-3-3-------------|
E|--0-0-0-0-0-0-0---0-0-0-0-0-0-0---0-0-0-0-0-0-0---1-1-1-1-1-1-1-------------|

(1:45-1:53)
 where the heart is | Someday if ever you love me you'd say it's okay
e|--0-0-0-0-0-0-0---0-0-0-0-0-0-0---0-0-0-0-0-0-0---1-1-1-1-1-1-1-------------|
B|--1-1-1-1-1-1-1---1-1-1-1-1-1-1---1-1-1-1-1-1-1---1-1-1-1-1-1-1-------------|
G|--0-0-0-0-0-0-0---0-0-0-0-0-0-0---2-2-2-2-2-2-2---2-2-2-2-2-2-2-------------|
D|--2-2-2-2-2-2-2---0-0-0-0-0-0-0---2-2-2-2-2-2-2---3-3-3-3-3-3-3-------------|
A|--3-3-3-3-3-3-3---2-2-2-2-2-2-2---0-0-0-0-0-0-0---3-3-3-3-3-3-3-------------|
E|--0-0-0-0-0-0-0---0-0-0-0-0-0-0---0-0-0-0-0-0-0---1-1-1-1-1-1-1-------------|


VERSE 2

(1:54-2:01)
 It's okay to be angry and never let go | It only gets harder the more that you know
e|-----------------------------------------------------------------------------|
B|-----------------------------------------------------------------------------|
G|--7-5-5-7--7-5-7-5---5/9-9-9-7~-7\5-7b-8-7-5---5-----------------------------|
D|-------------------7-------------------------7---7---7h10-10-10-10\9-9-5/7---|
A|-----------------------------------------------------------------------------|
E|-----------------------------------------------------------------------------|

(2:02-2:05)
 When you get lonely | if no one's around |
e|--0-0-0-0--------------0-0-0-0---------------------------------------------|
B|--1-1-1-1--------------1-1-1-1---------------------------------------------|
G|--0-0-0-0--------------0-0-0-0---------------------------------------------|
D|--2-2-2-2--------------0-0-0-0---------------------------------------------|
A|--3-3-3-3--------------2-2-2-2---------------------------------------------|
E|--0-0-0-0--------------0-0-0-0---------------------------------------------|

(2:06-2:09)
 You know that I'll catch you | when you're falling down
e|--0-0-0-0------------------------1-1-1-1-----------------------------------|
B|--1-1-1-1------------------------1-1-1-1-----------------------------------|
G|--2-2-2-2------------------------2-2-2-2-----------------------------------|
D|--2-2-2-2------------------------3-3-3-3-----------------------------------|
A|--0-0-0-0------------------------3-3-3-3-----------------------------------|
E|--0-0-0-0------------------------1-1-1-1-----------------------------------|

(2:09-2:13)
 We came together | but you left alone
e|--0-0-0-0--------------0-0-0-0---------------------------------------------|
B|--1-1-1-1--------------1-1-1-1---------------------------------------------|
G|--0-0-0-0--------------0-0-0-0---------------------------------------------|
D|--2-2-2-2--------------0-0-0-0---------------------------------------------|
A|--3-3-3-3--------------2-2-2-2---------------------------------------------|
E|--0-0-0-0--------------0-0-0-0---------------------------------------------|

(2:14-2:17)
 And I know how it feels | to walk out on your own
e|--0-0-0-0------------------------1-1-1-1-----------------------------------|
B|--1-1-1-1------------------------1-1-1-1-----------------------------------|
G|--2-2-2-2------------------------2-2-2-2-----------------------------------|
D|--2-2-2-2------------------------3-3-3-3-----------------------------------|
A|--0-0-0-0------------------------3-3-3-3-----------------------------------|
E|--0-0-0-0------------------------1-1-1-1-----------------------------------|

(2:17-2:21)
Maybe someday | I will see you again
e|--0-0-0-0--------------0-0-0-0---------------------------------------------|
B|--1-1-1-1--------------1-1-1-1---------------------------------------------|
G|--0-0-0-0--------------0-0-0-0---------------------------------------------|
D|--2-2-2-2--------------0-0-0-0---------------------------------------------|
A|--3-3-3-3--------------2-2-2-2---------------------------------------------|
E|--0-0-0-0--------------0-0-0-0---------------------------------------------|

(2:22-2:26)
 And you'll look me in my eyes | call me your friend
e|--0-0-0-0--------------0-0-0-0---------------------------------------------|
B|--1-1-1-1--------------1-1-1-1---------------------------------------------|
G|--0-0-0-0--------------0-0-0-0---------------------------------------------|
D|--2-2-2-2--------------0-0-0-0---------------------------------------------|
A|--3-3-3-3--------------2-2-2-2---------------------------------------------|
E|--0-0-0-0--------------0-0-0-0---------------------------------------------|

Violin Part (Guitar Version)

(2:27-2:39)
E---------------------------------------------------------------------------|
B-------17~------17-18-17------------17-18-17-18-17-18-20-18-17-18----------|
G-17-19-----17-19----------19-17--19-------------------------------19--17---|
D---------------------------------------------------------------------------|
A---------------------------------------------------------------------------|
E---------------------------------------------------------------------------|

E-----------------------------------------------------------20~~~-----------|
B--------------------------------------17-18-20~~-----20~~------------------|
G-----17------------17-----------17-19-------------17-----------------------|
D--17----17-17---17----17-17--17--------------------------------------------|
A---------------------------------------------------------------------------|
E---------------------------------------------------------------------------|

(2:40-2:48)
Take you away | from that empty apartment | You stay and | forget where the heart is Someday,
e|--x-x-x-x-----0-0-0-0----------------0-0-0-0---------1-1-1-1--------------|
B|--x-x-x-x-----1-1-1-1----------------1-1-1-1---------1-1-1-1--------------|
G|--x-x-x-x-----0-0-0-0----------------2-2-2-2---------2-2-2-2--------------|
D|--x-x-x-x-----0-0-0-0----------------2-2-2-2---------3-3-3-3--------------|
A|--x-x-x-x-----2-2-2-2----------------0-0-0-0---------3-3-3-3--------------|
E|--x-x-x-x-----0-0-0-0----------------0-0-0-0---------1-1-1-1--------------|

 (2:49-2:55)
if ever you love me | you'd say | it's okay
e|--0-0-0-0-0-0-0------0-0-0-0-0-0-0---1-1-1-1-1-1-1--------------------------|
B|--1-1-1-1-1-1-1------1-1-1-1-1-1-1---1-1-1-1-1-1-1--------------------------|
G|--0-0-0-0-0-0-0------2-2-2-2-2-2-2---2-2-2-2-2-2-2--------------------------|
D|--0-0-0-0-0-0-0------2-2-2-2-2-2-2---3-3-3-3-3-3-3--------------------------|
A|--2-2-2-2-2-2-2------0-0-0-0-0-0-0---3-3-3-3-3-3-3--------------------------|
E|--0-0-0-0-0-0-0------0-0-0-0-0-0-0---1-1-1-1-1-1-1--------------------------|

ENDING

(2:55-3:15)
 Its okay | Its okay | Its okay
e|--0-0-0-0---0-0-0-0---0-0-0-0---1-1-1-1-------------------------------------|
B|--1-1-1-1---1-1-1-1---1-1-1-1---1-1-1-1-------------------------------------|
G|--0-0-0-0---0-0-0-0---2-2-2-2---2-2-2-2-------------------------------------|
D|--2-2-2-2---0-0-0-0---2-2-2-2---3-3-3-3-------------------------------------|
A|--3-3-3-3---2-2-2-2---0-0-0-0---3-3-3-3-------------------------------------|
E|--0-0-0-0---0-0-0-0---0-0-0-0---1-1-1-1-------------------------------------|


SOLO ENDING

(3:16-3:30)
e|-----------------------------------------------------------------------------|
B|-----------------------------------------------------------------------------|
G|--7-5-5-7--7-5-7-5---5/9-9-9-7~-7\5-7b-8-7-5---5-----------------------------|
D|-------------------7-------------------------7---7---7h10-10-10-10\9-9-5/7---|
A|-----------------------------------------------------------------------------|
E|-----------------------------------------------------------------------------|

| /  slide up
| \  slide down
| h  hammer-on
| p  pull-off
| ~  vibrato
| +  harmonic
| x  Mute note
===============================================================================
Suggest correction
Give kudos to tab author, rate the tab!
1 2 3 4 5
comments
print report bad tab
guest
You may want to rate the tab now too:
select rating
Wanna post a correction for this tab? Suggest correction