Oops, an error
Loading. Please wait.

Empty Street Tab

223 views 9 this week
no commentswrite comment
1 2 3 4 5
2 more votes to show rating
add to favorites
launch autoscroll
font size
0
reset
how to read this tab
guitar tuner
Autoscroll
slow
fast
+/-
esc
set tempo
stop
Help us to improve Ultimate-Guitar.com Take our survey!
×
Author
Difficulty
Tuning
intermediate
C G C F A D
About this tab version
Solo tab for Empty Street with repeat section. Was this info helpful? Yes No
Pay attention to the repeat!
When you reach ending 1, go back to the beginning of the repeat section and play again.
After you finish playing the second time, play ending 2 (17br).
After you play the 17br, play the repeated section again.
Reach ending 1 a third time, and go back to the beginning of the repeat.
Reach ending 1 a fourth time, and play ending 2 (17br).

[Solo x2]
          [: REPEAT
D|-------*-17-17-------17-17----------------14-14----------------------------|
A|-14h15-*-------15-15-------15-15----14h15-------15-15----------------------|
F|-------*-------------------------------------------------------------------|
C|-------*-------------------------------------------------------------------|
G|-------*-------------------------------------------------------------------|
C|-------*-------------------------------------------------------------------|

                                        1. :] [: 2.
D|-17-17-------17-17-------------------------*---17br------------------------|
A|-------15-15-------15-15----14h15----14h15-*-------------------------------|
F|-------------------------------------------*-------------------------------|
C|-------------------------------------------*-------------------------------|
G|-------------------------------------------*-------------------------------|
C|-------------------------------------------*-------------------------------|

[Interlude x2]

D|---------------------------------------------------------------------------|
A|-15--------15--------------------------------------------------------------|
F|--------14----14-12--------------------------------------------------------|
C|---------------------------------------------------------------------------|
G|---------------------------------------------------------------------------|
C|---------------------------------------------------------------------------|


************************************

| x   Dead note
| g   Grace note
| (n) Ghost note
| h   Hammer-on
| p   Pull-off
| r   Release
| >   Accented note
| t   Tapping
| b   Bend
| br  Bend release
| pb  Pre-bend
| pbr Pre-bend release
| /   Slide up
| \   Slide down
| ~   Vibrato
| s   Slap
| P   Pop
| PM  Palm mute
| TR  Trill
| N   Tremolo

************************************
Suggest correction
Give kudos to tab author, rate the tab!
1 2 3 4 5
comments
print report bad tab
guest
You may want to rate the tab now too:
select rating
Wanna post a correction for this tab? Suggest correction