Oops, an error
Loading. Please wait.

Everywhere Tab

version 1
version 1

Whole song

Interactive

32,164 views 30 this week
2 commentsread comments
1 2 3 4 5
accurate
x 13
add to favorites
launch autoscroll
font size
0
reset
how to read this tab
guitar tuner
Tab Pro tools
  • play this tab
  • loop segment
  • change instrument
  • show fretboard
  • metronome
Autoscroll
slow
fast
+/-
esc
set tempo
stop
DROP D TUNING!
Ite everyone, this isnt my tab but no one had bothered addin it to ultimate-guitar so i
thort wat the hell, here it is, gr8 song to play along to even better if u playin it in a
band..... enjoy

!-!-!-!-!G٥TÅÑÕ!-!-!-!-!

h - hammer on
p - pull off
b - bend
/ \ - slide
~ - let ring out
... - palm mute
2x
2x - mute after strumming
2x

GUITAR 1'S PARTS:
-----------------
Intro: (3x)
e|----4h5~-----2h4~------|
B|-----------------------|
G|--2--------1-----------|
D|4--------2-------------|
A|-----------------------|
D|-----------------------|

Intro Cont'd: (2x)
e|----------2-----0~-----|
B|----0------------------|
G|--2-----4-----1--------|
D|4-----1-----2----------|
A|-----------------------|
D|-----------------------|

Intro Cont'd: (Violin Part)
e|-------------------------5-5-5-5-5-7-9--9p7-7~---5-4~--5-4-2~-------------|
B|--------------------------------------------------------------------------|
G|------2-4-6--4-6--4h6-4~--------------------------------------------------|
D|4-4-4---------------------------------------------------------------------|
A|--------------------------------------------------------------------------|
D|--------------------------------------------------------------------------|

Verse: "Tell me how you got..." (2x)
e|---------------------------------------------------------------------------|
B|---------------------------------------------------------------------------|
G|---------2-2----2--------2---2---------------------------------------------|
D|4-4----4-2-2----2-2-2----2-2-2---------------------------------------------|
A|4-4----4-0-0----0-2-2----0-2-0-2-2-2---------------------------------------|
D|4-4----4----------2-2------2---2-2-2---------------------------------------|
.....

Verse Cont'd:
e|----0~----0---------------0------------------------------------------------|
B|------------0~------0------------------------------------------------------|
G|--2---------------2-----4--------------------------------------------------|
D|4-------2-------4-----1-----2~---2x----------------------------------------|
A|---------------------------------2x----------------------------------------|
D|---------------------------------2x----------------------------------------|

Chorus: "Cuz you're everywhere..." (2x)
e|----------------------------------------------------------------------------|
B|----------------------------------------------------------------------------|
G|7-7-7-7-7-7-7-7-------------------------------------------------------------|
D|7-7-7-7-7-7-7-7-7-7-7-7-7-7-7-7-2-2-2-2-2-2-2-2-2-2-2-2-2-2-2-2-------------|
A|5-5-5-5-5-5-5-5-7-7-7-7-7-7-7-7-2-2-2-2-2-2-2-2-2-2-2-2-2-2-2-2-------------|
D|----------------7-7-7-7-7-7-7-7-2-2-2-2-2-2-2-2-2-2-2-2-2-2-2-2-------------|

Chorus Cont'd:
e|--------------------------------------------------------------------------|
B|--------------------------------------------------------------------------|
G|----2-----2-----2-----2-----1-----1-----4-----1---------------------------|
D|0-0---0-0---------------2-2---2-2---2-2---2-2-----------------------------|
A|------------0-0---0-0-----------------------------------------------------|
D|--------------------------------------------------------------------------|
... ... ... ... ... ... ... ...

Chorus Cont'd:
e|---------------------------------------------------------------------------|
B|---------------------------------------------------------------------------|
G|7-7-7-7-7-7-7-7------------------------------------------------------------|
D|7-7-7-7-7-7-7-7-7-7-7-7-7-7-7-7-2-2-2-2-2-2-2-2x---------------------------|
A|5-5-5-5-5-5-5-5-7-7-7-7-7-7-7-7-2-2-2-2-2-2-2-2x---------------------------|
D|----------------7-7-7-7-7-7-7-7-2-2-2-2-2-2-2-2x---------------------------|

Interlude:
e|--------------------------5-5-5-5-5-7-9--9p7-7~---5-4~--5-4-2~-------------|
B|---------------------------------------------------------------------------|
G|------2-4-6--4-6--4h6-4~---------------------------------------------------|
D|4-4-4----------------------------------------------------------------------|
A|---------------------------------------------------------------------------|
D|---------------------------------------------------------------------------|

2nd Verse: (Phaser on) (2x)
e|---------------------------------------------------------------------------|
B|---------------------------------------------------------------------------|
G|----------------2-2-2-2-2-2-2-2--------------------------------------------|
D|4-4-4-4-4-4-4-4-2-2-2-2-2-2-2-2-2-2-2-2-2-2-2-2-2-2-2-2-2-2-2-2------------|
A|4-4-4-4-4-4-4-4-0-0-0-0-0-0-0-0-2-2-2-2-2-2-2-2-2-2-2-2-2-2-2-2------------|
D|4-4-4-4-4-4-4-4-----------------2-2-2-2-2-2-2-2-2-2-2-2-2-2-2-2------------|

2nd Verse Cont'd:
|----------------------------------------------------------------------------|
|----------------------------------------------------------------------------|
|----------------------------------------------------------------------------|
|0-0-0-0-0-0-0-0-0-0-0-0-0-0-0-0-2-2-2-2-2-2-2-2-2-2-2-2-2-2-2-2-------------|
|0-0-0-0-0-0-0-0-0-0-0-0-0-0-0-0-2-2-2-2-2-2-2-2-2-2-2-2-2-2-2-2-4-4-4-4-4-4-|
|0-0-0-0-0-0-0-0-0-0-0-0-0-0-0-0-2-2-2-2-2-2-2-2-2-2-2-2-2-2-2-2-3-3-3-3-3-3-|

2nd Verse Cont'd:
e|--------------------------------------------------------------------------|
B|--------------------------------------------------------------------------|
G|--------------------------------------------------------------------------|
D|---------------------4-4-4-4-4-4-2-2-2-2-2-2------------------------------|
A|4-4-4-4-4-4-4-4-4-4--4-4-4-4-4-4-2-2-2-2-2-2-2-2-2-2-2-2x-----------------|
D|3-3-3-3-3-3-3-3-3-3--4-4-4-4-4-4-2-2-2-2-2-2-1-1-1-1-1-1x-----------------|

Repeat Chorus

Solo:
e|---------------------------------------------------------------------------|
B|6b--4b--5b--6b--7b--4b--5b--6b-7-7-7-7-7-7-7-7-7-7-7-7-9-9-9-9-9-9-9-9-9-9-|
G|---------------------------------------------------------------------------|
D|---------------------------------------------------------------------------|
A|---------------------------------------------------------------------------|
D|---------------------------------------------------------------------------|

Solo Cont'd:
e|----------------------------------------------------------------------------|
B|9-9-10-10-10-10-10-10-10-10-10-10-10-10-12-12-12-12-12-12-12-12-12-12-12-12-|
G|----------------------------------------------------------------------------|
D|----------------------------------------------------------------------------|
A|----------------------------------------------------------------------------|
D|----------------------------------------------------------------------------|

Solo Cont'd:
e|---------------------------------------------------------------------------|
B|14h15p14----14h15p14----14h15p14--------------------------------12---------|
G|---------16----------16----------16-14-16-11h13-14-13-11-13-11b----11b-9---|b\
D|---------------------------------------------------------------------------|
A|---------------------------------------------------------------------------|
D|---------------------------------------------------------------------------|

Part After Solo: (Violin and drums only)

Repeat Chorus a lot

Ending:
e|----0-----0-------------0-----0--------------------------------------------|
B|----------------0~--------------0~-----------------------------------------|
G|--2-----2-----1-------2-----2---1~-----------------------------------------|
D|4-----2-----2-------4-----2-----2~-----------------------------------------|
A|---------------------------------------------------------------------------|
D|---------------------------------------------------------------------------|

GUITAR 2'S PARTS:
-----------------
Intro: (Only Guitar 1)

Intro Cont'd: (When violin comes in) (2x)
e|--------------------------------------------------------------------------|
B|--------------------------------------------------------------------------|
G|---------2-2----2--------2---2--------------------------------------------|
D|4-4----4-2-2----2-2-2----2-2-2--------------------------------------------|
A|4-4----4-0-0----0-2-2----0-2-0-2-2-2--------------------------------------|
D|4-4----4----------2-2------2---2-2-2--------------------------------------|
.....

Verse: "Tell me how you got..." (2x)
e|--------------------------------------------------------------------------|
B|--------------------------------------------------------------------------|
G|---------2-2----2--------2---2--------------------------------------------|
D|4-4----4-2-2----2-2-2----2-2-2--------------------------------------------|
A|4-4----4-0-0----0-2-2----0-2-0-2-2-2--------------------------------------|
D|4-4----4----------2-2------2---2-2-2--------------------------------------|
.....

Verse Cont'd:
e|--------------------------------------------------------------------------|
B|--------------------------------------------------------------------------|
G|----------------------------2x--------------------------------------------|
D|0~-----2~-----0~------2~----2x--------------------------------------------|
A|0~-----2~-----0~------2~----0x--------------------------------------------|
D|0~-----2~-----0~------2~--------------------------------------------------|

Chorus: "Cuz you're everywhere to me..." (2x)
e|--------------------------------------------------------------------------|
B|--------------------------------------------------------------------------|
G|7-7-7-7-7-7-7-7-----------------------------------------------------------|
D|7-7-7-7-7-7-7-7-7-7-7-7-7-7-7-7-2-2-2-2-2-2-2-2-2-2-2-2-2-2-2-2-----------|
A|5-5-5-5-5-5-5-5-7-7-7-7-7-7-7-7-2-2-2-2-2-2-2-2-2-2-2-2-2-2-2-2-----------|
D|----------------7-7-7-7-7-7-7-7-2-2-2-2-2-2-2-2-2-2-2-2-2-2-2-2-----------|

Chorus Cont'd:
e|--------------------------------------------------------------------------|
B|--------------------------------------------------------------------------|
G|7-7-7-7-7-7---------------------------------------------------------------|
D|7-7-7-7-7-7-7-7-7-7-7-7-2-2-2-2-2-2-2-2-2-2-2-2---------------------------|
A|5-5-5-5-5-5-7-7-7-7-7-7-2-2-2-2-2-2-2-2-2-2-2-2---------------------------|
D|------------7-7-7-7-7-7-2-2-2-2-2-2-2-2-2-2-2-2---------------------------|
... ... ... ... ... ... ... ...

Chorus Cont'd:
e|---------------------------------------------------------------------------|
B|---------------------------------------------------------------------------|
G|7-7-7-7-7-7-7-7---------------------------------13-13-13-13-13-13-13-13----|
D|7-7-7-7-7-7-7-7-7-7-7-7-7-7-7-7-2-2-2-2-2-2-2-2--x--x--x--x--x--x--x--x----|
A|5-5-5-5-5-5-5-5-7-7-7-7-7-7-7-7-2-2-2-2-2-2-2-2-11-11-11-11-11-11-11-11----|
D|----------------7-7-7-7-7-7-7-7-2-2-2-2-2-2-2-2----------------------------|

Repeat Intro Cont'd

Verse - Play same thing as Guitar One

Repeat Chorus

Solo:
e|---------------------------------------------------------------------------|
B|---------------------------------------------------------------------------|
G|---------------------------------------------------------------------------|
D|---------------------------------------------------------------------------|
A|-4-4-4-4-4-4-4-4-2-2-2-2-2-2-2-2-2-2-2-2-2-2-2-2-4-4-4-4-4-4-4-4-4-4-4-4-4-|
D|-4-4-4-4-4-4-4-4-1-1-1-1-1-1-1-1-2-2-2-2-2-2-2-2-3-3-3-3-3-3-3-3-4-4-4-4-4-|

e|---------------------------------------------------------------------------|
B|---------------------------------------------------------------------------|
G|---------------------------------------------------------------------------|
D|---------------------------------------------------------------------------|
A|-4-4-4-2-2-2-2-2-2-2-2-2-2-2-2-2-2-2-2-4-4-4-4-4-4-4-4-4-4-4--4-4-4--4-7-7-|
D|-4-4-4-1-1-1-1-1-1-1-1-2-2-2-2-2-2-2-2-3-3-3-3-3-3-3-3-4-4-4--4-4-4--4-6-6-|

e|--------------------------------------------------------------------------|
B|--------------------------------------------------------------------------|
G|----------------------------------------------------------------------9-9-|
D|----------------------------------------------------------------------9-9-|
A|-7-7-7--7-7-7--7-7-7--7-9-9--9-9-9--9-2-2-2-2-2-2-2-2-2-2-2-2-2-2-2-2-7-7-|
D|-6-6-6--6-7-7--7-7-7--7-9-9--9-9-9--9-2-2-2-2-2-2-2-2-2-2-2-2-2-2-2-2-----|

e|---------------------------------------------------------------------------|
B|---------------------------------------------------------------------------|
G|-9-9-9-9-9-9-9-9-9-9-9-9-9x------------------------------------------------|
D|-9-9-9-9-9-9-9-9-9-9-9-9-9x------------------------------------------------|
A|-7-7-7-7-7-7-7-7-7-7-7-7-7x------------------------------------------------|
D|---------------------------------------------------------------------------|

Part After Solo: (Violin and drums only)

Repeat Chorus a lot

Ending:
e|----0-----0-------------0-----0-----------------------------------------|
B|----------------0~--------------0~--------------------------------------|
G|--2-----2-----1-------2-----2---1~--------------------------------------|
D|4-----2-----2-------4-----2-----2~--------------------------------------|
A|------------------------------------------------------------------------|
D|------------------------------------------------------------------------|

That's it everyone. Cool cover song.
!-!-!-!-!G٥TÅÑÕ!-!-!-!-!
comments
print report bad tab
2 comments total.
0 reply
ggutar4914 wrote on February 24 2008, 09:07 pm

not bad...but i dont think all oif its drop D tuning. all the picking stuff sounds right but the PC's arnt right to me

0 reply
Spac3Ghost wrote on December 27 2009, 10:14 am

possibly might be an octave higher instead of the low open D power chords =) =) good job though!!!!!!!

I want to post or [tab]
guest
You may want to rate the tab now too:
select rating
Please do not post tabs as comments. Select "correction" instead!