Oops, an error
Loading. Please wait.

Everywhere Bass Tab

version 2
version 2

Whole song

Interactive

2,189 views 3 this week
no commentswrite comment
1 2 3 4 5
please rate
add to favorites
launch autoscroll
font size
0
reset
guitar tuner
Autoscroll
slow
fast
+/-
esc
set tempo
stop
Help us to improve Ultimate-Guitar.com Take our survey!
×
Author
Everywhere - Yellowcard

This tab represents the way I play this song. Its probably not 100% correct but
still is pretty accurate. Enjoy the song


Intro
---6---6---9---9-|-----------------|
-4---4--\7---7---|---9---9---9-7-6-|
-----------------|-7---7---7-------|
-----------------|-----------------|

---6---6---------|-----------------|
-4---4-----7---7-|---9---9---9---9-|
---------5---5---|-7---7---7---7---|
-----------------|-----------------|
(you’re never there)

Verse
----|-----|---|-------|
----|-----|---|-------|
----|--00-|---|-------|
-22-|-2---|00-|-0-050-|

----|-----|---|-------|
----|-----|---|-------|
----|--00-|---|-------|
-22-|-2---|00-|-0-020-|

---------------------------------|
---------------------------------|
-5-5-5-5---------5-5-6-6-7-7-~---|
---------0-0-0-0-----------------|
Chorus
---------------------------------|
---------------------------------|
-5-5-5-5-0-0-0-0-----------------|
-----------------0-0-0-0-0-0-0-0-|

Verse
----|-----|---|-------|
----|-----|---|-------|
----|--00-|---|-------|
-22-|-2---|00-|-0-050-|

----|-----|---|-------|
----|-----|---|-------|
----|--00-|---|-------|
-22-|-2---|00-|-0-020-|

------------------------------------|
------------------------------------|
----------00000000------------------|
-22222222----------0000000000000000-|

---------------------------------------------|
---------------------------------------------|
-55555555----------00000000-99999999888777---|
----------00000000---------------------------|

Chorus
---------------------------------|
---------------------------------|
-5-5-5-5-0-0-0-0-----------------|
-----------------0-0-0-0-0-0-0-0-|

---------------------|
---------------------|
---------------------|
-2222-1111-2222-4444-|

-------------------------------------|
-------------------------------------|
-------------------------------------|
-22222222-44444444-55555555-77777777-|

|FILL----|
|--------|
|-----7--| haven’t figured this part out. just play anything
|--------| that sounds realy cool! (^_^)

---------------------------------|
---------------------------------|
-5-------0-----------------------|
-----------------0---------------|

Chorus
---------------------------------|
---------------------------------|
-5-5-5-5-0-0-0-0-----------------|
-----------------0-0-0-0-0-0-0-0-|

Outro
---6---6---9---9-|-----------------|
-4---4--\7---7---|---9---9---9-7-6-|
-----------------|-7---7---7-------|
-----------------|-----------------|

---6---6---9---9-|-----------------|
-4---4--\7---7---|-----------------|
-----------------|-7---------------|
-----------------|-----------------|
Suggest correction
Give kudos to tab author, rate the tab!
1 2 3 4 5
comments
print report bad tab
guest
You may want to rate the tab now too:
select rating
Wanna post a correction for this tab? Suggest correction