Oops, an error
Loading. Please wait.

Five Becomes Four Bass Tab

version 1
version 1

Whole song

Interactive

1,547 views 1 this week
no commentswrite comment
1 2 3 4 5
excellent!
x 3
add to favorites
launch autoscroll
font size
0
reset
guitar tuner
Tab Pro tools
  • play this tab
  • loop segment
  • change instrument
  • show fretboard
  • metronome
×
Best way to learn
"Five Becomes Four"
Autoscroll
slow
fast
+/-
esc
set tempo
stop
Contributor
Band: Yellowcard
Album: Paperwalls
Song: Five Becomes Four

Sorry, I know the timing isn’t perfect

Please rate

Intro (0:04) (this might be a guitar part)

G|-------------17-17-15-15-|
D|-17-17-17-17-------------| 
A|-------------------------|
E|-------------------------|

(0:09)

G|-------------------------|
D|-17-17-17-17-17-17-17-17-| 
A|-------------------------|
E|-------------------------|

Chorus (0:11)

G|------------------------------------------------------------------|
D|-------------------------------------------------555-555-555-555--| 
A|------------------------------------------------------------------| x2
E|-555555555555555500000000000000001111111111111111-----------------|

Verse 1 (0:32)

G|----------------------------------|
D|-----------------3333333355555555-| 
A|-0000000033333333-----------------| x2
E|----------------------------------|

G|----------------------------------|
D|---------3333333355555555---------| 
A|-00000000----------------3---2----|
E|----------------------------------|

G|----------------------------------|
D|---------333333335555555555555555-| 
A|-00000000-------------------------|
E|----------------------------------|

Chorus (0:52)

Verse 2 (1:13)

G|----------------------------------|
D|-----------------3333333355555555-| 
A|-0000000033333333-----------------| x2
E|----------------------------------|

G|----------------------------------|
D|---------3333333355555555---------| 
A|-00000000----------------3---5----|
E|----------------------------------|

G|----------------------------------|
D|---------333333335555555555555555-| 
A|-00000000-------------------------|
E|----------------------------------|

Pre-chorus (1:34)

G|----|
D|----| 
A|----| 
E|-1~-|

Pause 

Chorus (1:37)

Bridge (1:56)

G|---------------------------------|
D|-3-33333-------------------------| 
A|-----------------5-55555---------| x3
E|---------------------------------|

G|---------------------------------|
D|-3-33333--33333------------------| 
A|-----------------5-55555--55555--| x2
E|---------------------------------|

(2:22)

G|------------------------------|
D|-2-222203-333325-555537777775-| 
A|------------------------------| x2
E|------------------------------|

G|-4-444425-555547-777759-9999710-10~-|
D|------------------------------------| 
A|------------------------------------|
E|------------------------------------|

Pause

Chorus (2:45)

Ending (3:06)

G|------------------------------------------------------------------|
D|/7777777777777777222222222222222233333333333333335555555555555555-| 
A|------------------------------------------------------------------|
E|------------------------------------------------------------------|

G|--------------------------------------------------------------|
D|/777777777777777722222222222222223333333333333333555555555----| 
A|----------------------------------------------------------5---|
E|-----------------------------------------------------------53-|
comments
We did not receive enough feedback on this tab! Please rate:
print report bad tab
1 2 3 4 5
I want to post or [tab]
guest
You may want to rate the tab now too:
select rating
Please do not post tabs as comments. Select "correction" instead!