Oops, an error
Loading. Please wait.

Five Becomes Four Chords

version 1
version 1

Whole song

Interactive

8,160 views 6 this week
no commentswrite comment
1 2 3 4 5
excellent!
x 7
add to favorites
launch autoscroll
font size
0
reset
transpose
0
reset
display chords
guitar tuner
Tab Pro tools
  • play this tab
  • loop segment
  • change instrument
  • show fretboard
  • metronome
×
Best way to learn
"Five Becomes Four"
Autoscroll
slow
fast
+/-
esc
set tempo
stop
Contributor
I'm new at this so here's five becomes four by the greatest band ever!!



intro:                     verse 1

e|------------------------|--------------------------------------------|
B|---1---1---1---1---1---1|---1---1---1---1---1---1---1---1---1---1---1|
G|------------------------|-----------------------------------------0--|
D|-2---2---2---2---2---2--|-2---2---2---2---2---2---3---3---3---3------|
A|------------------------|--------------------------------------------|
E|------------------------|--------------------------------------------|
                          needed some time so I could find a little strength


e|------------------------------------------------------------------------|
B|---1---1---1---1---1---1---1---1---1---1---1---1---1---1---1---1---1---1|
G|-0---0---0-----------------------------------0---0---0---0--------------|
D|-------------3---3---3---3---2---2---2---2-------------------3---3---3--|
A|------------------------------------------------------------------------|
E|------------------------------------------------------------------------|
   to redefine what ive become what I have done i never asked to be the one

e|----|
B|---1|
G|----|
D|-3--|
A|----|
E|----|

 interlude: Am, Em, F, C, G,... Am, Em, F, e|--33--33---3--33--33---3|
                                           B|1---1----1--0---0----0--|
              
 
Am           F        C                         G
im riding it out this storm that you've brought in bringing it 

Am           F        C          G          
down on me around for you id go again its gotta 

Am         F             G                C  Em
be easy to see what everyone takes out of me knockin me 

Am              F               G              C
down draggin me out how did you end up in that crowd 

chorus:

Am                              Em                                     F
did you run away did you fall apart did you see yourself for what you are

                           C           G
will you be lookin for it anymore when five becomes four

Am                            Em                                      F
when your all alone with a melody do you close your eyes and think of me

                                C           G
will you still hear me singin anymore when five becomes four

Am            F        C           G
try and put aside your history and pride maybe for 

Am            F          C         
one moment in time we'll all be on your 

G               Am          F                 G                  C
side, the story goes nobody knows what it was like when you were through

Em          Am               F                  G             C
someone who cared out in the air you'd let them crash down anywhere

1 measure interlude Am,

chorus:

Am                              Em                                     F
did you run away did you fall apart did you see yourself for what you are

                           C           G
will you be lookin for it anymore when five becomes four

Am                            Em                                      F
when your all alone with a melody do you close your eyes and think of me

                                C           G
will you still hear me singin anymore when five becomes four


1 measure play for each,then mute between each chord

Am...F...G...C...Em..


Am                                       F
where did you go i need to know i waited here you never showed

          G                          C               
its gonna be harder for me cuz i can forgive so many things

Em           Am                                   F                  
when you were down and i was around why would you try and hurt me now 

               F         G       Am      F      G      Am
just tell me why

              F          G       Am      F      G      Am    F F (let ring)
just tell me why 


(no chords)
did you run away, did you run away, did you run away



Am                              Em                                     F
did you run away did you fall apart did you see yourself for what you are

                           C           G
will you be lookin for it anymore when five becomes four

Am                            Em                                      F
when your all alone with a melody do you close your eyes and think of me

                               e|--3-3---3-3--3---3-3---3-3---3|
                               B|1----1------1--0----0------0--|
will you still hear me singin anymore when five becomes four




e|--3---3---3---3---3-----3---3---3---3---3---113-113-113-113-113|
B|11--11--11--11--11----00--00--00--00--00-----------------------|
                                   when five becomes four


e|--3---3---3---3---3|
B|11--11--1--00--00--|
when five becomes four.


e|--3---3---3---3---3-----3---3---3---3---3---113-113-113-113-113|
B|11--11--11--11--11----00--00--00--00--00-----------------------|

e|--3---3---3---3---3-3| 
B|11--11--1--00--00--0-|

e|--3---3---3---3---3-----3---3---3---3---3---113-113-113-113-113|
B|11--11--11--11--11----00--00--00--00--00-----------------------|

e|--3---3--3-3333|
B|11--11--1--3333| 


end


hope you guys like it ! keep on rockin to yellowcard



comments
print report bad tab
I want to post or [tab]
guest
You may want to rate the tab now too:
select rating
Please do not post tabs as comments. Select "correction" instead!