Oops, an error
Loading. Please wait.

For You And Your Denial Bass Tab

version 2
version 2

Whole song

Interactive

1,327 views 1 this week
no commentswrite comment
1 2 3 4 5
please rate
add to favorites
launch autoscroll
font size
0
reset
guitar tuner
Autoscroll
slow
fast
+/-
esc
set tempo
stop
Help us to improve Ultimate-Guitar.com Take our survey!
×
Author
Difficulty
Tuning
novice
D A D G B E
Tabbed by: Matt
Email: May92d@yahoo.com
Song: For You, and Your Denial
Artist: Yellowcard
Album: For You, and Your Denial (single)
Tuning: Drop D (D, A, D, G) 



Intro
Come in at 0:11
G |---------------------------------------------------------------------|
D |---------------------------------------------------------------------|
A |2222222222222-444-5555555555555555-0000000000000000------------------|
D |----------------------------------------------------5555555555555555-|

Verse1
G |-----------------------------------------------------------------------|
D |-----------------------------------------------------------------------|
A |2222222222222-444------------------------------------------------------|
D |------------------000000000000-77-00-7777777777777777-5555555555555555-|

G |--------------------------------------------------------------------|
D |--------------------------------------------------------------------|
A |22-222-222-222-44-55-555-555-55555-00-000-000-00000-----------------|
D |----------------------------------------------------55-555-55555555-|

Chorus1
G |------------------------------------------------------------------------|
D |------------------------------------------------------------------------|
A |2222222222222222-5555555555555555---------------------------------------|
D |----------------------------------5555555555555555-9999--555-7777--000--|

G |-------------------------------------------------------------------|
D |-------------------------------------------------------------------|
A |2222222222222222-5555555555555555----------------------------------|
D |----------------------------------5555555555555555-9999--555-77777-|

Verse2
G |---------------------------------------------------------------------|
D |---------------------------------------------------------------------|
A |2222222222222-444-5555555555555555-0000000000000000------------------|
D |----------------------------------------------------5555555555555555-|

G |-------------------------------------------------------------------------|
D |-------------------------------------------------------------------------|
A |22-222-222-222-44-55-555-555-55555-00-000-000-00000-----------------22-22|
D |----------------------------------------------------55-555-55555555------|

G |-------------------------------------------------------------------------|
D |-------------------------------------------------------------------------|
A |2-222-222-44-55-555-555-55555-00-000-000-000-00000-----------------------|
D |---------------------------------------------------55-555-555-55555-77777|



G |------------|
D |------------|
A |------------|
D |77777777777-|

Chorus2
G |------------------------------------------------------------------------|
D |------------------------------------------------------------------------|
A |2222222222222222-5555555555555555---------------------------------------|
D |----------------------------------5555555555555555-9999--555-7777--000--|


G |------------------------------------------------------------------------|
D |------------------------------------------------------------------------|
A |2222222222222222-5555555555555555---------------------------------------|
D |----------------------------------5555555555555555-9999--555-7777--000--|

G |---------------|
D |---------------|
A |---------------|
D |9999--555-7777-|

Bridge
Come in at 2:09
G |-------------------------------------------------------------------------|
D |5555555555555555----------------5555555555555555-4444444444444444-2222222|
A |-------------------------------------------------------------------------|
D |-------------------------------------------------------------------------|

G |-------------------------------------------------------------------------|
D |222222222-0000-2222-4444-7777-5555555555555555-4444444444444444-222222222|
A |-------------------------------------------------------------------------|
D |-------------------------------------------------------------------------|

G |----------------------------|
D |2222222-0000-2222-4444-7777-|
A |----------------------------|
D |----------------------------|

Chorus3/Outro
Come in at 2:44
G |-------------------------------------------------------------------------|
D |-------------------------------------------------------------------------|
A |-------------------2222222222222222-5555555555555555---------------------|
D |9999--555-7777-000-----------------------------------5555555555555555-999|

G |-------------------------------------------------------------------------|
D |-------------------------------------------------------------------------|
A |----------------2222222222222222-5555555555555555------------------------|
D |9--555-7777-000-----------------------------------5555555555555555-9999--|

G |-------------------------------------------------------------------------|
D |-------------------------------------------------------------------------|
A |-------------------------------------------------------------------------|
D |555-7777-000--9999-555-7777-000--9999-555-7777-000--9999-555-7777-000-5~-|
Suggest correction
What's this?
You can suggest a correction to this tab. Community and Mods will review your correction and vote to approve or reject it.
comments
We did not receive enough feedback on this tab! Please rate:
print report bad tab
1 2 3 4 5
guest
You may want to rate the tab now too:
select rating
Please do not post tabs as comments. Select "correction" instead!