Oops, an error
Loading. Please wait.

For You And Your Denial Tab

version 2
version 2

Whole song

Interactive

6,313 views 3 this week
3 commentsread comments
1 2 3 4 5
x 7
add to favorites
launch autoscroll
font size
0
reset
how to read this tab
guitar tuner
Autoscroll
slow
fast
+/-
esc
set tempo
stop
Help us to improve Ultimate-Guitar.com Take our survey!
×
Drop D Tuning
Kay.  Not gonna lie.  This was pretty tough for me to tab out.  Hopefully
it's good enough to merit a decent rating.  Rate generously.  Please?!  Lol

Intro
Violin
(Might be off on but this is played pretty fast.  Cut me some slack!)
e-10--------------------9-10----------------9-10--------------------9-10-------------------|
b----12--------------12------12----------12------12--------------12------12----------------|
g-------11----11----------------11------------------11----11----------------11----11-------|
d----------12----12----------------12-9----------------12----12----------------12----12----|
a---------------------------------------------------------------------------------------14-|
d------------------------------------------------------------------------------------------|

e-12-------9-------12-10----9----12-10-9---------------10~-9~---------|
b----10-10---10-10-------10---10---------10-12-10-9-----------10~-----|
g---------------------------------------------------9-----------------|
d-----------------------------------------------------------------12~-|
a---------------------------------------------------------------------|
d---------------------------------------------------------------------|


Intro/Post Chorus
Guitar 1
e------------------------------------------------------------------------|
b------------------------------------------------------------------------|
g-4444444444444444-6666-7777777777777777-9999999999999999----------------|
d-4444444444444444-7777-7777777777777777-9999999999999999-55-555-555-555-|
a-2222222222222222-4444-5555555555555555-7777777777777777-55-555-555-555-|
d---------------------------------------------------------55-555-555-555-|

Guitar 2
e------------------------------------------------------------------------|
b------------------------------------------------------------------------|
g-4444444444444444-6666-7777777777777777---------------------------------|
d-4444444444444444-7777-7777777777777777-0000000000000000-55-555-555-555-|
a-2222222222222222-4444-5555555555555555-0000000000000000-55-555-555-555-|
d----------------------------------------0000000000000000-55-555-555-555-|

Verse 1
Rhythm (figure out its rhythm)
e----------------------------------------------------------|
b----------------------------------------------------------|
g-444444444444-6666-777777777777---------------------------|
d-444444444444-7777-777777777777-777777777777-555555555555-|
a-222222222222-4444-555555555555-777777777777-555555555555-|
d--------------------------------777777777777-555555555555-|

Lead (Palm Mute)
e------------------------------------------------------|
b---------------------------------------------10-------|
g-777777777777777-6666-777777777777-9-11-9-12----11----|
d---------------------------------------------------12-|
a------------------------------------------------------|
d------------------------------------------------------|

e------------------------------------------------------|
b---------------------------------------------10-------|
g------------------------------------11----12----11----|
d-11111111111111111111111-99999999-9----9-----------12-|
a--------(11's)----------------------------------------|
d------------------------------------------------------|

Chorus
e-------------------------------------------------------------|
b-------------------------------------------------------------|
g-444444444444-6666-777777777777------------------------------|
d-444444444444-7777-777777777777-555555555555-999-5-5-777-0-0-|
a-222222222222-4444-555555555555-555555555555-999-5-5-777-0-0-|
d--------------------------------555555555555-999-5-5-777-0-0-|


e--------------------------------------------------------------|
b--------------------------------------------------------------|
g-444444444444-6666-777777777777-------------------------------|
d-444444444444-7777-777777777777-555555555555-999-5-5-777-0000-|
a-222222222222-4444-555555555555-555555555555-999-5-5-777-0000-|
d--------------------------------555555555555-999-5-5-777-0000-|


Intro/Post-chorus

Verse 2
First half is same as first verse

Second Half (Figure out rhythm)
e---------------------------------------------------------------------|
b---------------------------------------------------------------------|
g-444444444444-66-777777777777----------------------------------------|
d-444444444444-66-777777777777-777777777777-555555555555-777777777777-|
a-222222222222-44-555555555555-777777777777-555555555555-777777777777-|
d------------------------------777777777777-555555555555-777777777777-|

Chorus

Bridge
e----------------------------------------|
b----------------------------------------|
g-----4-----6-----7-----11---------------|
d---0-----0-----0-----0-----555555555555-| 2x
a-2-----4-----5-----9-------555555555555-|
d---------------------------555555555555-|

Rhythm
e------------------------------------------------------|
b------------------------------------------------------|
g---------------------------4444-6666-7777-------------| 
d-444444444444-555555555555-4444-6666-7777-77777777777-|
a-444444444444-555555555555-2222-4444-5555-77777777777-|
d-444444444444-555555555555----------------77777777777-|

e---------------------------------------------------------------|
b---------------------------------------------------------------|
g-----------------------------------------4444-6666-7777--------|
d-555555555555-4444444444444-555555555555-4444-6666-7777-7777~--|
a-555555555555-4444444444444-555555555555-2222-4444-5555-7777~--|
d-555555555555-4444444444444-555555555555----------------7777~--|

Lead 
e-------------------------------------------------------------------------|
b-------------------------------------------------------------------------|
g-111111111111111111111111-7777-121212121212121212121212-1111111111111111-|
d--x-x-x-x-x-x-x-x-x-x-x-x-xxxx--x-x-x-x-x-x-x-x-x-x-x-x--x-x-x-x-x-x-x-x-|
a--9-9-9-9-9-9-9-9-9-9-9-9-5555-101010101010101010101010--9-9-9-9-9-9-9-9-|
d-------------------------------------------------------------------------|

e--------------------------------------------------|
b--------------------------------------------------|
g-4444-6666-7777-11111111-121212121212121212121212-|
d-xxxx-xxxx-xxxx--x-x-x-x--x-x-x-x-x-x-x-x-x-x-x-x-|
a-2222-4444-5555--9-9-9-9-101010101010101010101010-|
d--------------------------------------------------|

e-------------------------------------------------------------------------|
b-------------------------------------------------------------------------|
g-111111111111111111111111-7777-121212121212121212121212-1111111111111111-|
d--x-x-x-x-x-x-x-x-x-x-x-x-xxxx--x-x-x-x-x-x-x-x-x-x-x-x--x-x-x-x-x-x-x-x-|
a--9-9-9-9-9-9-9-9-9-9-9-9-5555-101010101010101010101010--9-9-9-9-9-9-9-9-|
d-------------------------------------------------------------------------|

e-------------------------|
b-------------------------|
g-4444-6666-7777-11111111-|
d-xxxx-xxxx-xxxx--x-x-x-x-|
a-2222-4444-5555--9-9-9-9-|
d-------------------------|

Post Bridge
First couple lines for violin verse here

Guitar
e----------------------------------------|
b----------------------------------------|
g-444444444444-6666-7777777777777777-----|
d-444444444444-6666-7777777777777777-5~--|
a-222222222222-4444-5555555555555555-5~--|
d------------------------------------5~--|

Rhythm Guitar (know when to play what)
Chorus several times

e-----------------|
b-----------------|
g-----------------| repeat
d-999-5-5-777-0-0-|  till
a-999-5-5-777-0-0-|  end
d-999-5-5-777-0-0-|

Lead Guitar (last time rhythm plays chorus part 2.  Kinda hard to hear)
e--------10-10-10-------------------------------|
b-----------------12-10-------10-10-------10-10-|
g-----11----------------------------------------|
d-9-9-------------------12-12-------11-11-------|
a-----------------------------------------------|
d-----------------------------------------------|

e-------------------------------------------|
b-------------10-------------------10-------| 
g-----11---12----12-11-----11---12----12-11-|  whole 
d-9-9----9-------------9-9----9-------------|  thing
a-------------------------------------------|    2x
d-------------------------------------------|

Ending
e--------10-10-10------------------------------|
b-----------------12-10------10-10-------10-10-|
g-----11---------------------------------------|
d-9-9-------------------12-12------11-11-------|
a----------------------------------------------|
d----------------------------------------------|

e------------------------------------------------|
b-------------10-------------------10------------|
g-----11---12----12-11-----11---12---------------|
d-9-9----9-------------9-9----9-------12-11-12~--|
a------------------------------------------------|
d------------------------------------------------|
Suggest correction
comments
print report bad tab
3 comments total.
-1 reply
Gibson_jr 92 Jan 31, 2011 01:20 AM

It's not bad. Your violin Intro is very off, except the last part, you got that good. His just doing arpeggios at the beginning, of Bm and D.

Some of you chords are a bit funny, but it's a good start here, some more to be done to it, but its worth about 3.5 stars from me :-).

+1 reply
ian101234 10 Feb 13, 2011 08:34 PM

Just tried it and yeah it's definitely the best one on here so far, but is a very new song so going to hang around until a near perfect version appears!
Very good though :)

0 reply
stilwing 10 Jun 21, 2013 09:17 AM

could you please post a tab about that arpeggioes?

guest
You may want to rate the tab now too:
select rating
Wanna post a correction for this tab? Suggest correction