Oops, an error
Loading. Please wait.

Gifts And Curses Tab

version 2
version 2

Whole song

Interactive

994 views 3 this week
no commentswrite comment
1 2 3 4 5
please rate
add to favorites
launch autoscroll
font size
0
reset
how to read this tab
guitar tuner
Autoscroll
slow
fast
+/-
esc
set tempo
stop
Help us to improve Ultimate-Guitar.com Take our survey!
×
GIFTS AND CURSES BY YELLOWCARD
STANDARD TUning

INTRO

Vocals play high E~
CHORDS: Guitar 1
e]---------------------------------------]
b]---------------------------------------]
g]-x-x-x-x-----------------------3-------]
d]-x-x-x-x----7------7-----4-----2-------]
a]-x-x-x-x----7------7-----4-----0-------]
e]-x-x-x-x----5------0-----2-----0-------]
              A     A/E   F#    D

CHORDS: Guitar 2
e]---5-5-5-5--4--5-5------------]
b]---4-4-4-4--4--4-4------------]
g]---5-5-5-5--5--5-5------------]
d]------------------------------]
a]------------------------------]
e]------------------------------]

LEAD (VIOLIN)
e]--4\5-5-5-------------------------------------------]
b]-----------5--7-9p-----5-7--2p\3--------------------]
g]------------------------------------9-7-6---4-6-2~--]
d]----------------------------------------------------]
a]----------------------------------------------------]
e]----------------------------------------------------]

VERSE 1 (LINE 1 TO 4)
e]      0 ]e     0 ]e      0]e      0|
b]  0     ]b  0    ]b   0   ]a  0    |
g]        ]g       ]g       ]g       |
d]2   2   ]d       ]d       ]d       |
a]        ]a 2  2  ]a 4   4 ]a 0   0 |
e]        ]e       ]e       ]e       |

BRIDGE TO CHORUS!
she is the one.. (x2)
e-------------------------------------]
b-------------------------------------]
g-------------------------------------]
d------------------7..-6----7---------]
a---------------------------------7p~-]
e-------------------------------------]

the villain I can knock down..
e----------------------------]
b----------------------------]
g----------------------------]
d--------6--7p---------9~----]
a----------------------------]
e----------------------------]


CHORUS:
A5 - Em - F# - D/A

-ADLIB-
PIANO
e----------------------------|
b----10-------10------10-----|
g--------9-------------------|
d----------7-------7---------|
a----------------------------|
e----------------------------|

look at other tabs.. i know my chords are wrong
Suggest correction
Give kudos to tab author, rate the tab!
1 2 3 4 5
comments
print report bad tab
guest
You may want to rate the tab now too:
select rating
Please do not post tabs as comments. Select "correction" instead!