Oops, an error
Loading. Please wait.

Grey tab

version 2
version 2

Whole song

Interactive

2,261 views 1 this week
5 commentsread comments
1 2 3 4 5
x 6
add to favorites
×
Save as Personal and add changes to this tab that will be seen only by you. Learn more ›
×
You can save this tab as Personal to edit and correct it or add notes. All changes will be seen only by you. Learn more »
launch autoscroll
font size
0
reset
how to read this tab
guitar tuner
edit
Autoscroll
slow
fast
+/-
esc
set tempo
stop
Difficulty
intermediate
Title: Grey
Artist: Yellowcard
Album: Lights and Sounds

The other tab for this had some faults in it, so I figured that I would go ahead and
correct them for you, so you don’t have to do it yourself.  I also added the guitar
one little solo part in the intro; the other tab did not have that.  Enjoy.  This
tab should be 100% correct.

Standard Tuning (EADGBE, low to high)

Intro

e|--------------------------------------------------------------|
B|--------------------------------------------------------------|
G|-----7--------------------------------------------------------| X1
D|-----7-x12----------------------------------------------------|
A|-----5--------------------------------------------------------|
E|--------------------------------------------------------------|

(Then come in with...)

Guitar 1
e|---5-5b~----5-5b-------5-5b~----5-5b--------------------------|
B|-6--------6------6---6--------6------6------------------------|
G|--------------------------------------------------------------| X2
D|--------------------------------------------------------------|
A|--------------------------------------------------------------|
E|--------------------------------------------------------------|

Listen to the song for strum patterns; it’s easy to pick up
Guitar 2
e|--------------------------------------------------------------|
B|--------------------------------------------------------------|
G|-----7--------------------------------------------------------| X2
D|-----7-x12--8-------------------------------------------------|
A|-----5------8-x12---------------------------------------------|
E|------------6-------------------------------------------------|

Verse

Grey skies, clouding up the things we used to see...
e|--------------------------------------------------------------|
B|--------------------------------------------------------------|
G|-----7~-------------------------------------------------------| X1
D|-----7~-------------------------------------------------------|
A|-----5~-------------------------------------------------------|
E|--------------------------------------------------------------|

Pre Chorus
			      (Listen for strumming on last part)
e|---------------------------------------------------------------|
B|---------------------------------------------------------------|
G|-----10------9-------------------------------------------------| x1
D|-----10-x16--10-x16--5------8------8---------------------------|
A|-----8-------7-------5-x16--8-x16--8-x6------------------------|
E|---------------------3------6------6---------------------------|

Chorus

It’s all gone grey; it’s all gone grey...
e|--------------------------------------------------------------|
B|--------------------------------------------------------------|
G|-----7--------------------------------------------------------| X2
D|-----7-x12--8-------------------------------------------------|
A|-----5------8-x12---------------------------------------------|
E|------------6-------------------------------------------------|

Verse

I found telling you the truth the hardest thing...
e|--------------------------------------------------------------|
B|--------------------------------------------------------------|
G|-----7~-------------------------------------------------------| X1
D|-----7~-------------------------------------------------------|
A|-----5~-------------------------------------------------------|
E|--------------------------------------------------------------|

Pre Chorus
			      (Listen for strumming on last part)
e|---------------------------------------------------------------|
B|---------------------------------------------------------------|
G|-----10------9-------------------------------------------------| x1
D|-----10-x16--10-x16--5------8------8---------------------------|
A|-----8-------7-------5-x16--8-x16--8-x6------------------------|
E|---------------------3------6------6---------------------------|

Bridge

Given one more try, I don’t know if I would stay...
e|---------------------------------------------------------------|
B|---------------------------------------------------------------|
G|------------5------7-------------------------------------------|
D|-----5------5-x16—-7-x16--8------------------------------------| x2
A|-----5-x16--3------5------8-x16--------------------------------|
E|-----3--------------------6------------------------------------|

Post-Bridge

I know every last regret inside of me is my own...
e|---------------------------------------------------------------|
B|---------------------------------------------------------------|
G|---7~----5~----------------------------------------------------| x1
D|---7~----5~---5~---8~------------------------------------------|
A|---5~----3~---5~---8~------------------------------------------|
E|--------------3~---6~------------------------------------------|

Pre Chorus
			      (Listen for strumming on last part)
e|---------------------------------------------------------------|
B|---------------------------------------------------------------|
G|-----10------9-------------------------------------------------| x1
D|-----10-x16--10-x16--5------8------8---------------------------|
A|-----8-------7-------5-x16--8-x16--8-x6------------------------|
E|---------------------3------6------6---------------------------|

Bridge

Given one more try, I don’t know if I would stay...
e|---------------------------------------------------------------|
B|---------------------------------------------------------------|
G|------------5------7-------------------------------------------|
D|-----5------5-x16—-7-x16--8------------------------------------| x3
A|-----5-x16--3------5------8-x16--------------------------------|
E|-----3--------------------6------------------------------------|

Last Chorus

Guitar 1
e|---5-5b~----5-5b-------5-5b~----5-5b--------------------------|
B|-6--------6------6---6--------6------6------------------------|
G|--------------------------------------------------------------| X4
D|--------------------------------------------------------------|
A|--------------------------------------------------------------|
E|--------------------------------------------------------------|

Guitar 2
It’s all gone grey; it’s all gone grey...
e|--------------------------------------------------------------|
B|--------------------------------------------------------------|
G|-----7--------------------------------------------------------| X2
D|-----7-x12--8-------------------------------------------------|
A|-----5------8-x12---------------------------------------------|
E|------------6-------------------------------------------------|

Outro (While Ryan is still singing the chorus)

Guitar 2
		(Listen for strumming pattern)
Grey skies, clouding up the things we used to see...
e|--------------------------------------------------------------|
B|--------------------------------------------------------------|
G|---7------5-----------------------------7~--------------------| x1
D|---7-x12--5-x12--5------8------(end on)-7~--------------------|
A|---5------3------5-x12--8-x12-----------5~--------------------|
E|-----------------3------6-------------------------------------|

KEY: 

b - Bend
~ - Let Ring

This tab was transcribed 100% by Trevor Paxton.  Any questions, comments, or
concerns, email theatariskid05@yahoo.com.  All rights reserved to Yellowcard.  

            
            
Suggest correction
Creating personal tab
Creating personal tab
You can edit any tab online and save it as your Personal.

You can edit, replace or remove any tab part or add personal notes – all changes will be seen only by you.

Personal tabs can be accessed anytime from any device, even offline.
Learn more »
comments
print report bad tab
5 comments total. Showing first comments.
0 reply
z3r0element07 602 Mar 01, 2006 11:35 AM

Ha, you beat me to this... Nice job.

0 reply
huskbunny 52 Mar 07, 2006 06:34 PM

dont dis the other tab, that tab was quite good and really basically 100% right, your one lacks quality

0 reply
z3r0element07 602 Mar 18, 2006 08:44 AM

You need to get a life and learn to play guitar. Stop self-promoting your tabs because we all know it's yours and plus it sucks and this is better.

guest
Wanna post a correction for this tab? Suggest correction