Oops, an error
Loading. Please wait.

How I Go tab

version 1
version 1

Whole song

Interactive

6,424 views 3 this week
4 commentsread comments
1 2 3 4 5
x 7
add to favorites
×
Save as Personal and add changes to this tab that will be seen only by you. Learn more ›
×
You can save this tab as Personal to edit and correct it or add notes. All changes will be seen only by you. Learn more »
launch autoscroll
font size
0
reset
how to read this tab
guitar tuner
edit
Autoscroll
slow
fast
+/-
esc
set tempo
stop
Difficulty
intermediate
song - How I Go
band - yellowcard
album - lights and sound (2006)

hi, erm, this is my first tab so be gentle with the ratings plz.
himynameisemma! im 15, been playin guitar for a year now and iv picked it up pretty wel. 
also play bass, piano, keyboard and mandolin. thats it...ME!

if ANYBODY has the bass, piano or violin music for this or knows wer to get it plz plz 
email me at:

emma.bladon-jones@ntlworld.com

NEED it for my GCSE work so if u know anything that would be soooooo helpful.

#NOTE# on the verses ther is NO 2nd gtr part, i added that in coz it sounds good and 
it seem fuller, it will also pass as your interpretation of the song. if u really must play 
exactly like the cd then don't play guitar 2, just gtr 1. KAY!?!


u will have to listen to the song to get timing and struming.

ENJOY!!

Standard tuning
Gtr I (E A D G B E) - 'Acoustic 1'
Gtr II (E A D G B E) - 'Acoustic 2'


 Intro

  Gtr I
||0-0-0-0-0-0-|-0-0-0-0-0-0-|-0-0-0-0-0-0-|-0-0-0-0-0-0-|
||0-0-0-0-0-0-|-0-0-0-0-0-0-|-0-0-0-0-0-0-|-0-0-0-0-0-0-|
||1-1-1-1-1-1-|-4-4-4-4-4-4-|-6-6-6-6-6-6-|-2-2-2-2-2-2-|
||2-2-2-2-2-2-|-4-4-4-4-4-4-|-6-6-6-6-6-6-|-2-2-2-2-2-2-|
||2-2-2-2-2-2-|-2-2-2-2-2-2-|-4-4-4-4-4-4-|-0-0-0-0-0-0-|
||0-0-0-0-0-0-|-------------|-------------|-------------|
|                                                       |  x2
| Gtr II                                                |
||0-0-0-0-0-0-|-0-0-0-0-0-0-|-0-0-0-0-0-0-|-0-0-0-0-0-0-|
||0-0-0-0-0-0-|-0-0-0-0-0-0-|-0-0-0-0-0-0-|-0-0-0-0-0-0-|
||1-1-1-1-1-1-|-4-4-4-4-4-4-|-6-6-6-6-6-6-|-2-2-2-2-2-2-|
||2-2-2-2-2-2-|-4-4-4-4-4-4-|-6-6-6-6-6-6-|-2-2-2-2-2-2-|
||2-2-2-2-2-2-|-2-2-2-2-2-2-|-4-4-4-4-4-4-|-0-0-0-0-0-0-|
||0-0-0-0-0-0-|-------------|-------------|-------------|


Riff

  Gtr I
||----0-0-0----0-0-0-|----0-0-0----0-0-0-|
||----0-0-0----0-0-0-|----0-0-0----0-0-0-|
||--x-------x--------|--x--------x-------|
||--9-------7--------|--6--------4-------|
||-------------------|-------------------|
||-------------------|-------------------|


Verse

  Gtr I
||---0-0---0-0-0-|---0-0---0-0-0-|---0-0---0-0-0-|---0-0---0-0-0-|
||---0-0---0-0-0-|---0-0---0-0-0-|---0-0---0-0-0-|---0-0---0-0-0-|
||-x-----x-------|-x-----x-------|-x-----x-------|-x-----x-------|
||-9-----9-------|-4-----4-------|-1-----1-------|-1s2---2-------|
||---------------|---------------|---------------|---------------|
||---------------|---------------|---------------|---------------|
|                                                                | x2
| Gtr II                                                         |
||--0-0-0-0-0-0--|--0-0-0-0-0-0--|--0-0-0-0-0-0--|--0-0-0-0-0-0--|
||--0-0-0-0-0-0--|--0-0-0-0-0-0--|--0-0-0-0-0-0--|--0-0-0-0-0-0--|
||--1-1-1-1-1-1--|--2-2-2-2-2-2--|--4-4-4-4-4-4--|--2-2-2-2-2-2--|
||--2-2-2-2-2-2--|--2-2-2-2-2-2--|--4-4-4-4-4-4--|--2-2-2-2-2-2--|
||--2-2-2-2-2-2--|--0-0-0-0-0-0--|--2-2-2-2-2-2--|--0-0-0-0-0-0--|
||--0-0-0-0-0-0--|---------------|---------------|---------------|


Chorus

  Gtr I
||-0-0-0-0-0-0-|--0--0--0--0--0--0-|-0-0-0-0-0-0-|-0-----|
||-0-0-0-0-0-0-|--0--0--0--0--0--0-|-0-0-0-0-0-0-|-0-----|
||-1-1-1-1-1-1-|--4--4--4--4--4--4-|-6-6-6-6-6-6-|-2-----|
||-2-2-2-2-2-2-|--4--4--4--4--4--4-|-6-6-6-6-6-6-|-2-----|
||-2-2-2-2-2-2-|--2--2--2--2--2--2-|-4-4-4-4-4-4-|-0-----|
||-0-0-0-0-0-0-|-------------------|-------------|-------|
|                                                        |
| Gtr II                                                 |
||-0-0-0-0-0-0-|--0--0--0--0--0--0-|-0-0-0-0-0-0-|-0-----|
||-0-0-0-0-0-0-|--0--0--0--0--0--0-|-0-0-0-0-0-0-|-0-----|
||-9-9-9-9-9-9-|-11-11-11-11-11-11-|-6-6-6-6-6-6-|-6-----|
||-9-9-9-9-9-9-|-11-11-11-11-11-11-|-6-6-6-6-6-6-|-7-----|
||-7-7-7-7-7-7-|--9--9--9--9--9--9-|-4-4-4-4-4-4-|-7-----|
||-------------|-------------------|-------------|-5-----|

Riff

  Gtr I
||----0-0-0----0-0-0-|----0-0-0----0-0-0-|
||----0-0-0----0-0-0-|----0-0-0----0-0-0-|
||--x-------x--------|--x--------x-------|
||--9-------7--------|--6--------4-------|
||-------------------|-------------------|
||-------------------|-------------------|

Verse

  Gtr I
||---0-0---0-0-0-|---0-0---0-0-0-|---0-0---0-0-0-|---0-0---0-0-0-|
||---0-0---0-0-0-|---0-0---0-0-0-|---0-0---0-0-0-|---0-0---0-0-0-|
||-x-----x-------|-x-----x-------|-x-----x-------|-x-----x-------|
||-9-----9-------|-4-----4-------|-1-----1-------|-1s2---2-------|
||---------------|---------------|---------------|---------------|
||---------------|---------------|---------------|---------------|
|                                                                | x2
| Gtr II                                                         |
||--0-0-0-0-0-0--|--0-0-0-0-0-0--|--0-0-0-0-0-0--|--0-0-0-0-0-0--|
||--0-0-0-0-0-0--|--0-0-0-0-0-0--|--0-0-0-0-0-0--|--0-0-0-0-0-0--|
||--1-1-1-1-1-1--|--2-2-2-2-2-2--|--4-4-4-4-4-4--|--2-2-2-2-2-2--|
||--2-2-2-2-2-2--|--2-2-2-2-2-2--|--4-4-4-4-4-4--|--2-2-2-2-2-2--|
||--2-2-2-2-2-2--|--0-0-0-0-0-0--|--2-2-2-2-2-2--|--0-0-0-0-0-0--|
||--0-0-0-0-0-0--|---------------|---------------|---------------|




Chorus

  Gtr I
||--0-0-0-0-0-0-|--0--0--0--0--0--0-|-0-0-0-0-0-0-|-0-0-0-0-0-0--|
||o-0-0-0-0-0-0-|--0--0--0--0--0--0-|-0-0-0-0-0-0-|-0-0-0-0-0-0-o|
||--1-1-1-1-1-1-|--4--4--4--4--4--4-|-6-6-6-6-6-6-|-2-2-2-2-2-2--|
||--2-2-2-2-2-2-|--4--4--4--4--4--4-|-6-6-6-6-6-6-|-2-2-2-2-2-2--|
||o-2-2-2-2-2-2-|--2--2--2--2--2--2-|-4-4-4-4-4-4-|-0-0-0-0-0-0-o|
||--0-0-0-0-0-0-|-------------------|-------------|--------------|
|                                                                | x2
| Gtr II                                                         |
||--0-0-0-0-0-0-|--0--0--0--0--0--0-|-0-0-0-0-0-0-|-0-0-0-0-0-0--|
||o-0-0-0-0-0-0-|--0--0--0--0--0--0-|-0-0-0-0-0-0-|-0-0-0-0-0-0-o|
||--9-9-9-9-9-9-|-11-11-11-11-11-11-|-6-6-6-6-6-6-|-6-6-6-6-6-6--|
||--9-9-9-9-9-9-|-11-11-11-11-11-11-|-6-6-6-6-6-6-|-7-7-7-7-7-7--|
||o-7-7-7-7-7-7-|--9--9--9--9--9--9-|-4-4-4-4-4-4-|-7-7-7-7-7-7-o|
||--------------|-------------------|-------------|-5-5-5-5-5-5--|


Let it Flow

 Gtr I
||--0-0-0-0-0-0-|--0--0--0--0--0--0-|-0-0-0-0-0-0-|-0-0-0-0-0-0--|
||o-0-0-0-0-0-0-|--0--0--0--0--0--0-|-0-0-0-0-0-0-|-0-0-0-0-0-0-o|
||--1-1-1-1-1-1-|--4--4--4--4--4--4-|-6-6-6-6-6-6-|-2-2-2-2-2-2--|
||--2-2-2-2-2-2-|--4--4--4--4--4--4-|-6-6-6-6-6-6-|-2-2-2-2-2-2--|
||o-2-2-2-2-2-2-|--2--2--2--2--2--2-|-4-4-4-4-4-4-|-0-0-0-0-0-0-o|
||--0-0-0-0-0-0-|-------------------|-------------|--------------|
|                                                                | x2
| Gtr II                                                         |
||--0-0-0-0-0-0-|--0--0--0--0--0--0-|-0-0-0-0-0-0-|-0-0-0-0-0-0--|
||o-0-0-0-0-0-0-|--0--0--0--0--0--0-|-0-0-0-0-0-0-|-0-0-0-0-0-0-o|
||--9-9-9-9-9-9-|-11-11-11-11-11-11-|-6-6-6-6-6-6-|-6-6-6-6-6-6--|
||--9-9-9-9-9-9-|-11-11-11-11-11-11-|-6-6-6-6-6-6-|-7-7-7-7-7-7--|
||o-7-7-7-7-7-7-|--9--9--9--9--9--9-|-4-4-4-4-4-4-|-7-7-7-7-7-7-o|
||--------------|-------------------|-------------|-5-5-5-5-5-5--|


Bridge

  Gtr I
||---0--0--0--0--0--0-|-0-0-0-0-0-0-|-0-0-0-0-0-0-|-0-0-0-0-0-0--|
||o--0--0--0--0--0--0-|-0-0-0-0-0-0-|-0-0-0-0-0-0-|-0-0-0-0-0-0-o|
||---4--4--4--4--4--4-|-6-6-6-6-6-6-|-2-2-2-2-2-2-|-1-1-1-1-1-1--|
||---4--4--4--4--4--4-|-6-6-6-6-6-6-|-2-2-2-2-2-2-|-2-2-2-2-2-2--|
||o--2--2--2--2--2--2-|-4-4-4-4-4-4-|-0-0-0-0-0-0-|-2-2-2-2-2-2-o|
||--------------------|-------------|-------------|-0-0-0-0-0-0--|
|                                                                | x2
| Gtr II                                                         |
||---0--0--0--0--0--0-|-0-0-0-0-0-0-|-0-0-0-0-0-0-|-0-0-0-0-0-0--|
||o--0--0--0--0--0--0-|-0-0-0-0-0-0-|-0-0-0-0-0-0-|-0-0-0-0-0-0-o|
||--11-11-11-11-11-11-|-6-6-6-6-6-6-|-6-6-6-6-6-6-|-9-9-9-9-9-9--|
||--11-11-11-11-11-11-|-6-6-6-6-6-6-|-7-7-7-7-7-7-|-9-9-9-9-9-9--|
||o--9--9--9--9--9--9-|-4-4-4-4-4-4-|-7-7-7-7-7-7-|-7-7-7-7-7-7-o|
||--------------------|-------------|-5-5-5-5-5-5-|--------------|


Breakdown

  Gtr I
||--0-0-0-0-0-0-|--0--0--0--0--0--0-|-0-0-0-0-0-0-|-0-0-0-0-0-0--|
||o-0-0-0-0-0-0-|--0--0--0--0--0--0-|-0-0-0-0-0-0-|-0-0-0-0-0-0-o|
||--1-1-1-1-1-1-|--4--4--4--4--4--4-|-6-6-6-6-6-6-|-2-2-2-2-2-2--|
||--2-2-2-2-2-2-|--4--4--4--4--4--4-|-6-6-6-6-6-6-|-2-2-2-2-2-2--|
||o-2-2-2-2-2-2-|--2--2--2--2--2--2-|-4-4-4-4-4-4-|-0-0-0-0-0-0-o|
||--0-0-0-0-0-0-|-------------------|-------------|--------------|
|                                                                | x4
| Gtr II                                                         |
||--0-0-0-0-0-0-|--0--0--0--0--0--0-|-0-0-0-0-0-0-|-0-0-0-0-0-0--|
||o-0-0-0-0-0-0-|--0--0--0--0--0--0-|-0-0-0-0-0-0-|-0-0-0-0-0-0-o|
||--9-9-9-9-9-9-|-11-11-11-11-11-11-|-6-6-6-6-6-6-|-6-6-6-6-6-6--|
||--9-9-9-9-9-9-|-11-11-11-11-11-11-|-6-6-6-6-6-6-|-7-7-7-7-7-7--|
||o-7-7-7-7-7-7-|--9--9--9--9--9--9-|-4-4-4-4-4-4-|-7-7-7-7-7-7-o|
||--------------|-------------------|-------------|-5-5-5-5-5-5--|

Riff

  Gtr I
||----0-0-0----0-0-0-|----0-0-0----0-0-0-|
||----0-0-0----0-0-0-|----0-0-0----0-0-0-|
||--x--------x-------|--x--------x-------|
||--9--------7-------|--6--------4-------|
||-------------------|-------------------|
||-------------------|-------------------|

Verse

  Gtr I
||---0-0---0-0-0-|---0-0---0-0-0-|---0-0---0-0-0-|---0-0---0-0-0-|
||---0-0---0-0-0-|---0-0---0-0-0-|---0-0---0-0-0-|---0-0---0-0-0-|
||-x-----x-------|-x-----x-------|-x-----x-------|-x-----x-------|
||-9-----9-------|-4-----4-------|-1-----1-------|-1s2---2-------|
||---------------|---------------|---------------|---------------|
||---------------|---------------|---------------|---------------|
|                                                                | x2
| Gtr II                                                         |
||--0-0-0-0-0-0--|--0-0-0-0-0-0--|--0-0-0-0-0-0--|--0-0-0-0-0-0--|
||--0-0-0-0-0-0--|--0-0-0-0-0-0--|--0-0-0-0-0-0--|--0-0-0-0-0-0--|
||--1-1-1-1-1-1--|--2-2-2-2-2-2--|--4-4-4-4-4-4--|--2-2-2-2-2-2--|
||--2-2-2-2-2-2--|--2-2-2-2-2-2--|--4-4-4-4-4-4--|--2-2-2-2-2-2--|
||--2-2-2-2-2-2--|--0-0-0-0-0-0--|--2-2-2-2-2-2--|--0-0-0-0-0-0--|
||--0-0-0-0-0-0--|---------------|---------------|---------------|




Chorus

  Gtr I
||--0-0-0-0-0-0-|--0--0--0--0--0--0-|-0-0-0-0-0-0-|-0-0-0-0-0-0--|
||o-0-0-0-0-0-0-|--0--0--0--0--0--0-|-0-0-0-0-0-0-|-0-0-0-0-0-0-o|
||--1-1-1-1-1-1-|--4--4--4--4--4--4-|-6-6-6-6-6-6-|-2-2-2-2-2-2--|
||--2-2-2-2-2-2-|--4--4--4--4--4--4-|-6-6-6-6-6-6-|-2-2-2-2-2-2--|
||o-2-2-2-2-2-2-|--2--2--2--2--2--2-|-4-4-4-4-4-4-|-0-0-0-0-0-0-o|
||--0-0-0-0-0-0-|-------------------|-------------|--------------|
|                                                                | x2
| Gtr II                                                         |
||--0-0-0-0-0-0-|--0--0--0--0--0--0-|-0-0-0-0-0-0-|-0-0-0-0-0-0--|
||o-0-0-0-0-0-0-|--0--0--0--0--0--0-|-0-0-0-0-0-0-|-0-0-0-0-0-0-o|
||--9-9-9-9-9-9-|-11-11-11-11-11-11-|-6-6-6-6-6-6-|-6-6-6-6-6-6--|
||--9-9-9-9-9-9-|-11-11-11-11-11-11-|-6-6-6-6-6-6-|-7-7-7-7-7-7--|
||o-7-7-7-7-7-7-|--9--9--9--9--9--9-|-4-4-4-4-4-4-|-7-7-7-7-7-7-o|
||--------------|-------------------|-------------|-5-5-5-5-5-5--|


Let it Flow

 Gtr I
||--0-0-0-0-0-0-|--0--0--0--0--0--0-|-0-0-0-0-0-0-|-0-0-0-0-0-0--|
||o-0-0-0-0-0-0-|--0--0--0--0--0--0-|-0-0-0-0-0-0-|-0-0-0-0-0-0-o|
||--1-1-1-1-1-1-|--4--4--4--4--4--4-|-6-6-6-6-6-6-|-2-2-2-2-2-2--|
||--2-2-2-2-2-2-|--4--4--4--4--4--4-|-6-6-6-6-6-6-|-2-2-2-2-2-2--|
||o-2-2-2-2-2-2-|--2--2--2--2--2--2-|-4-4-4-4-4-4-|-0-0-0-0-0-0-o|
||--0-0-0-0-0-0-|-------------------|-------------|--------------|
|                                                                | x2
| Gtr II                                                         |
||--0-0-0-0-0-0-|--0--0--0--0--0--0-|-0-0-0-0-0-0-|-0-0-0-0-0-0--|
||o-0-0-0-0-0-0-|--0--0--0--0--0--0-|-0-0-0-0-0-0-|-0-0-0-0-0-0-o|
||--9-9-9-9-9-9-|-11-11-11-11-11-11-|-6-6-6-6-6-6-|-6-6-6-6-6-6--|
||--9-9-9-9-9-9-|-11-11-11-11-11-11-|-6-6-6-6-6-6-|-7-7-7-7-7-7--|
||o-7-7-7-7-7-7-|--9--9--9--9--9--9-|-4-4-4-4-4-4-|-7-7-7-7-7-7-o|
||--------------|-------------------|-------------|-5-5-5-5-5-5--|


 Let It Flow

 Gtr I
||---0--0--0--0--0--0-|-0-0-0-0-0-0-|-0-0-0-0-0-0-|-0-0-0-0-0-0--|
||o--0--0--0--0--0--0-|-0-0-0-0-0-0-|-0-0-0-0-0-0-|-0-0-0-0-0-0-o|
||---4--4--4--4--4--4-|-6-6-6-6-6-6-|-2-2-2-2-2-2-|-1-1-1-1-1-1--|
||---4--4--4--4--4--4-|-6-6-6-6-6-6-|-2-2-2-2-2-2-|-2-2-2-2-2-2--|
||o--2--2--2--2--2--2-|-4-4-4-4-4-4-|-0-0-0-0-0-0-|-2-2-2-2-2-2-o|
||--------------------|-------------|-------------|-0-0-0-0-0-0--|
|                                                                | x2
| Gtr II                                                         |
||---0--0--0--0--0--0-|-0-0-0-0-0-0-|-0-0-0-0-0-0-|-0-0-0-0-0-0--|
||o--0--0--0--0--0--0-|-0-0-0-0-0-0-|-0-0-0-0-0-0-|-0-0-0-0-0-0-o|
||--11-11-11-11-11-11-|-6-6-6-6-6-6-|-6-6-6-6-6-6-|-9-9-9-9-9-9--|
||--11-11-11-11-11-11-|-6-6-6-6-6-6-|-7-7-7-7-7-7-|-9-9-9-9-9-9--|
||o--9--9--9--9--9--9-|-4-4-4-4-4-4-|-7-7-7-7-7-7-|-7-7-7-7-7-7-o|
||--------------------|-------------|-5-5-5-5-5-5-|--------------|


2nd Breakdown

 Gtr I
||0-0-0-0-0-0-|-0-0-0-0-0-0-|-0-0-0-0-0-0-|-0-0-0-0-0-0-|
||0-0-0-0-0-0-|-0-0-0-0-0-0-|-0-0-0-0-0-0-|-0-0-0-0-0-0-|
||1-1-1-1-1-1-|-4-4-4-4-4-4-|-6-6-6-6-6-6-|-2-2-2-2-2-2-| quietly
||2-2-2-2-2-2-|-4-4-4-4-4-4-|-6-6-6-6-6-6-|-2-2-2-2-2-2-|
||2-2-2-2-2-2-|-2-2-2-2-2-2-|-4-4-4-4-4-4-|-0-0-0-0-0-0-|
||0-0-0-0-0-0-|-------------|-------------|-------------|

Bridge

  Gtr I
||---0--0--0--0--0--0-|-0-0-0-0-0-0-|-0-0-0-0-0-0-|-0-0-0-0-0-0--|
||o--0--0--0--0--0--0-|-0-0-0-0-0-0-|-0-0-0-0-0-0-|-0-0-0-0-0-0-o|
||---4--4--4--4--4--4-|-6-6-6-6-6-6-|-2-2-2-2-2-2-|-1-1-1-1-1-1--|
||---4--4--4--4--4--4-|-6-6-6-6-6-6-|-2-2-2-2-2-2-|-2-2-2-2-2-2--|
||o--2--2--2--2--2--2-|-4-4-4-4-4-4-|-0-0-0-0-0-0-|-2-2-2-2-2-2-o|
||--------------------|-------------|-------------|-0-0-0-0-0-0--|
|                                                                | x2
| Gtr II                                                         |
||---0--0--0--0--0--0-|-0-0-0-0-0-0-|-0-0-0-0-0-0-|-0-0-0-0-0-0--|
||o--0--0--0--0--0--0-|-0-0-0-0-0-0-|-0-0-0-0-0-0-|-0-0-0-0-0-0-o|
||--11-11-11-11-11-11-|-6-6-6-6-6-6-|-6-6-6-6-6-6-|-9-9-9-9-9-9--|
||--11-11-11-11-11-11-|-6-6-6-6-6-6-|-7-7-7-7-7-7-|-9-9-9-9-9-9--|
||o--9--9--9--9--9--9-|-4-4-4-4-4-4-|-7-7-7-7-7-7-|-7-7-7-7-7-7-o|
||--------------------|-------------|-5-5-5-5-5-5-|--------------|


Outro

  Gtr I
||----0-0-0----0-0-0-|----0-0-0----0-0-0-|-------0--|
||----0-0-0----0-0-0-|----0-0-0----0-0-0-|------0---|
||--x--------x-------|--x--------x-------|-----1----|
||--9--------7-------|--6--------4-------|----2-----|
||-------------------|-------------------|---2------|
||-------------------|-------------------|--0-------|

            
            
Suggest correction
Creating personal tab
Creating personal tab
You can edit any tab online and save it as your Personal.

You can edit, replace or remove any tab part or add personal notes – all changes will be seen only by you.

Personal tabs can be accessed anytime from any device, even offline.
Learn more »
comments
print report bad tab
4 comments total. Showing first comments.
0 reply
brantheman 10 Mar 15, 2007 10:13 AM

great looking tab, sounds awesome

0 reply
BenFoffenbock 30 Oct 17, 2007 09:32 PM

5 Stars. You win.

0 reply
Anthinator 341 Aug 25, 2008 10:16 AM

How is this 5 stars? This sounds NOTHING like the song. No offense to the creator, but this is weak.

guest
Wanna post a correction for this tab? Suggest correction