Oops, an error
Loading. Please wait.

In Time bass

40 views 1 this week
1 commentread comment
1 2 3 4 5
3 more votes to show rating
add to favorites
×
Save as Personal and add changes to this tab that will be seen only by you. Learn more ›
×
You can save this tab as Personal to edit and correct it or add notes. All changes will be seen only by you. Learn more »
launch autoscroll
font size
0
reset
guitar tuner
edit
Autoscroll
slow
fast
+/-
esc
set tempo
stop
Author
Difficulty
-------------------------------------------------------------------------------
                             IN TIME - YELLOWCARD
-------------------------------------------------------------------------------
Tabbed by: Quinn Obropta
E-mail: obroptas@htps.us or sobropta@gmail.com
This one is really easy. I am not sure if there is a bass in the Bridge, if there 
is, please comment it or email me! 


Tuning: Standard

Intro(0:00)

G|----15-15-15--14-14-14--17-17-17-17-17-17--15-15-15--14-14-14--17-17-17-17-17-17|
D|---------------------------------------------------------------------------------|
A|---------------------------------------------------------------------------------|
E|---------------------------------------------------------------------------------|

G|----15-15-15--14-14-14----------------------15-15-15--17-17-17-------------------|
D|------------------------17-17-17--15-15-15----------------------15-15-15-15-15-15|
A|---------------------------------------------------------------------------------|
E|---------------------------------------------------------------------------------|

Verse 1 (0:18) 
G|--3-------2-------5--5--------3--------2--------------------3----2------------------3-----5---|
D|-----------------------------------------------3---3-3-------------------5-----3--------------|
A|----------------------------------------------------------------------------------------------|
E|----------------------------------------------------------------------------------------------|


G|---------------3------2-----5--5-5---------3-----2--------------------3----|
D|-3--3-3-------------------------------------------------3--3-3-------------|
A|---------------------------------------------------------------------------|
E|---------------------------------------------------------------------------|




G|--2------------------------3------5----------------------------------------|
D|-------5-------3------------------------3--3-3----3--3-3-------------------|
A|---------------------------------------------------------------------------|
E|---------------------------------------------------------------------------|


Chorus 1 (0:56)

G|--3-------2------5--5-5--------3--------2-----5--5-5------3----2-----------|
D|---------------------------------------------------------------------5-----|
A|---------------------------------------------------------------------------|
E|---------------------------------------------------------------------------|

G|-------------3--------5----------------------------------------------------|
D|---3---------------------------3--3-3--3--3-3------------------------------|
A|---------------------------------------------------------------------------|
E|---------------------------------------------------------------------------|


Verse 2 (1:14)

G|--3-------2-------5--5--------3--------2--------------------3----2------------------3-----5---|
D|-----------------------------------------------3---3-3-------------------5-----3--------------|
A|----------------------------------------------------------------------------------------------|
E|----------------------------------------------------------------------------------------------|


G|--------------|
D|-3--3-3-------|
A|--------------|
E|--------------|


Chorus (1:32)

G|--3-------2------5--5-5--------3--------2-----5--5-5------3----2-----------|
D|---------------------------------------------------------------------5-----|
A|---------------------------------------------------------------------------|
E|---------------------------------------------------------------------------|

G|-------------3--------5----------------------------------------------------|
D|---3---------------------------3--3-3--3--3-3------------------------------|
A|---------------------------------------------------------------------------|
E|---------------------------------------------------------------------------|



Bridge (No bass as far as I can here)(1:51)

Verse 3 (2:28)


G|--3-------2------5--5-5--------3--------2-----------------3----2-----------|
D|---------------------------------------------3--3-3------------------5-----|
A|---------------------------------------------------------------------------|
E|---------------------------------------------------------------------------|

G|-------------3--------5----------------------------------------------------|
D|---3---------------------------3--3-3--------------------------------------|
A|---------------------------------------------------------------------------|
E|---------------------------------------------------------------------------|


Chorus (2:44)

G|--3-------2------5--5-5--------3--------2-----5--5-5------3----2-----------|
D|---------------------------------------------------------------------5-----|
A|---------------------------------------------------------------------------|
E|---------------------------------------------------------------------------|

G|-------------3--------5----------------------------------------------------|
D|---3---------------------------3--3-3--------------------------------------|
A|---------------------------------------------------------------------------|
E|---------------------------------------------------------------------------|

G|--3-------2------5--5-5--------3--------2-----5--5-5------3----2-----------|
D|---------------------------------------------------------------------5-----|
A|---------------------------------------------------------------------------|
E|---------------------------------------------------------------------------|

G|-------------3--------5----------------------------------------------------|
D|---3---------------------------3--3-3--3--3-3------------------------------|
A|---------------------------------------------------------------------------|
E|---------------------------------------------------------------------------|

This is my first tab, any people welcome to correct, comment below
Suggest correction
Creating personal tab
Creating personal tab
You can edit any tab online and save it as your Personal.

You can edit, replace or remove any tab part or add personal notes – all changes will be seen only by you.

Personal tabs can be accessed anytime from any device, even offline.
Learn more »
Give kudos to tab author, rate the tab!
1 2 3 4 5
comments
print report bad tab
1 comment total.
0 reply
ImpendChaos 61 Jan 31, 2016 07:46 AM

People have stolen this tab. Be aware that this was the first tab written for it :D

guest
You may want to rate the tab now too:
select rating
Wanna post a correction for this tab? Suggest correction