Oops, an error
Loading. Please wait.

Keeper tab

version 1
version 1

Whole song

Interactive

1,495 views 9 this week
no commentswrite comment
1 2 3 4 5
2 more votes to show rating
add to favorites
×
Save as Personal and add changes to this tab that will be seen only by you. Learn more ›
×
You can save this tab as Personal to edit and correct it or add notes. All changes will be seen only by you. Learn more »
launch autoscroll
font size
0
reset
how to read this tab
guitar tuner
edit
Autoscroll
slow
fast
+/-
esc
set tempo
stop
Author
---------------------
 Keeper ~ Yellowcard
---------------------
Album: Paper Walls

Tabbed By: Russcool
(I know, pretty lame name)



Tuning: STANDARD

Timing: 4/4

Note: Every "-" is equal to a sixteenth note.
Example: (n = number)   n- 16th  
                        n-- 8th  
                        n--- Dotted Quater
                        n---- Quater 
                        ...and so on.




INTRO A

  Guitar 1   (Let Ring)
E|--------------------10------------|-------------10-------------------|
B|-------------14-------------------|------14--------------------------|
G|------11-------------------11-----|--------------------12-----12-----|
D|---0------0------0------0---------|---0------0------0------0---------|
A|----------------------------------|----------------------------------|
E|----------------------------------|----------------------------------|

E|--------------------10------------|-------------10-------------------|
B|-------------14-------------------|------14--------------------------|
G|------11-------------------11-----|--------------------12-----12-----|
D|---0------0------0------0---------|---0------0------0------0---------|
A|----------------------------------|----------------------------------|
E|----------------------------------|----------------------------------|



INTRO B

  Guitar 1   (Let Ring)
E|--------------------10------------|-------------10-------------------|
B|-------------14-------------------|------14--------------------------|
G|------11-------------------11-----|--------------------12-----12-----|
D|---0------0------0------0---------|---0------0------0------0---------|
A|----------------------------------|----------------------------------|
E|----------------------------------|----------------------------------|

E|--------------------10------------|-------------10-------------------|
B|-------------14-------------------|------14--------------------------|
G|------11-------------------11-----|--------------------12-----12-----|
D|---0------0------0------0---------|---0------0------0------0---------|
A|----------------------------------|----------------------------------|
E|----------------------------------|----------------------------------|

E|--------------------10------------|-------------10-------------------|
B|-------------14-------------------|------14--------------------------|
G|------11-------------------11-----|--------------------12-----12-----|
D|---0------0------0------0---------|---0------0------0------0---------|
A|----------------------------------|----------------------------------|
E|----------------------------------|----------------------------------|

E|--------------------10------------|-------------10-------------------|
B|-------------14-------------------|------14--------------------------|
G|------11-------------------11-----|--------------------12-----12-----|
D|---0------0------0------0---------|---0------0------0------0---------|
A|----------------------------------|----------------------------------|
E|----------------------------------|----------------------------------|


  Guitar 2
E|------------------------------|------------------------------|
B|------------------------------|------------------------------|
G|------------------------------|------------------------------|
D|---7--7--7--7--7--7--7--7-----|---7--7--7--7--7--7--7--7-----|
A|---5--5--5--5--5--5--5--5-----|---7--7--7--7--7--7--7--7-----|
E|------------------------------|---5--5--5--5--5--5--5--5-----|

E|------------------------------|------------------------------|
B|------------------------------|------------------------------|
G|------------------------------|------------------------------|
D|---7--7--7--7--7--7--7--7-----|---7--7--7--7--7--7--7--7-----|
A|---5--5--5--5--5--5--5--5-----|---5--5--5--5--5--5--5--5-----|
E|---3--3--3--3--3--3--3--3-----|---3--3--3--3--3--3--3--3-----|

E|------------------------------|------------------------------|
B|------------------------------|------------------------------|
G|------------------------------|------------------------------|
D|---7--7--7--7--7--7--7--7-----|---7--7--7--7--7--7--7--7-----|
A|---5--5--5--5--5--5--5--5-----|---7--7--7--7--7--7--7--7-----|
E|------------------------------|---5--5--5--5--5--5--5--5-----|

E|------------------------------|------------------------------|
B|------------------------------|------------------------------|
G|------------------------------|------------------------------|
D|---7--7--7--7--7--7--7--7-----|---7--7--7--7--7--7--7--7-----|
A|---5--5--5--5--5--5--5--5-----|---5--5--5--5--5--5--5--5-----|
E|---3--3--3--3--3--3--3--3-----|---3--3--3--3--3--3--3--3-----|



Verse 1

  Guitar 1
E|-----------------------|----------------------|----------------------|----------------------|
B|-----------------------|----------------------|----------------------|----------------------|
G|-----------------------|----------------------|----------------------|----------------------|
D|---0-------------------|----------------------|----------------------|----------------------|
A|-----------------------|----------------------|----------------------|----------------------|
E|-----------------------|----------------------|----------------------|----------------------|

E|-----------------------|----------------------|----------------------|----------------------|
B|-----------------------|----------------------|----------------------|----------------------|
G|-----------------------|----------------------|----------------------|----------------------|
D|-----------------------|----------------------|----------------------|----------------------|
A|-----------------------|----------------------|----------------------|----------------------|
E|-----------------------|----------------------|----------------------|----------------------|


  Guitar 2
E|-----------------------|----------------------|----------------------|----------------------|
B|-----------------------|----------------------|----------------------|----------------------|
G|---7-------------------|----------------------|----------------------|----------------------|
D|---5-------------------|----------------------|----------------------|----------------------|
A|-----------------------|----------------------|----------------------|----------------------|
E|-----------------------|----------------------|----------------------|----------------------|

E|-----------------------|----------------------|----------------------|----------------------|
B|-----------------------|----------------------|----------------------|----------------------|
G|-----------------------|----------------------|----------------------|----------------------|
D|-----------------------|----------------------|----------------------|----------------------|
A|-----------------------|----------------------|----------------------|----------------------|
E|-----------------------|----------------------|----------------------|----------------------|


  Guitar 3   (Let Ring)
E|----------------------------------|------------------------------|
B|----------------------------------|------------------------------|
G|---------11------------11---------|--------11----------11--------|
D|---------12------------12---------|--------12----------12--------|
A|----------------------------------|---0----------0--0------0-----|
E|---10----------10--10------10-----|------------------------------|

E|----------------------------------|----------------------------------|
B|----------------------------------|----------------------------------|
G|---------11------------11---------|---------11------------11---------|
D|---------12------------12---------|---------12------------12---------|
A|---10----------10--10------10-----|---10----------10--10------10-----|
E|----------------------------------|----------------------------------|

E|----------------------------------|------------------------------|
B|----------------------------------|------------------------------|
G|---------11------------11---------|--------11----------11--------|
D|---------12------------12---------|--------12----------12--------|
A|----------------------------------|------------------------------|
E|---10----------10--10------10-----|---0----------0--0------0-----|

E|----------------------------------|----------------------------------|
B|----------------------------------|----------------------------------|
G|---------11------------11---------|---------11------------11---------|
D|---------12------------12---------|---------12------------12---------|
A|---10----------10--10------10-----|---10----------10--10------10-----|
E|----------------------------------|----------------------------------|



PRE-CHORUS 1

  Guitar 1 & 2
E|------------------------------|------------------------------|
B|------------------------------|------------------------------|
G|---7--7--7--7--7--7--7--7-----|---7--7--7--7--7--7--7--7-----|
D|---X--X--X--X--X--X--X--X-----|---X--X--X--X--X--X--X--X-----|
A|---5--5--5--5--5--5--5--5-----|---5--5--5--5--5--5--5--5-----|
E|------------------------------|------------------------------|

  
  Guitar 3
E|------------------------------|------------------------------|
B|---3--3--3--3--3--3--3--3-----|---3--3--3--3--3--3--3--3-----|
G|---2--2--2--2--2--2--2--2-----|---2--2--2--2--2--2--2--2-----|
D|---0--0--0--0--0--0--0--0-----|---0--0--0--0--0--0--0--0-----|
A|------------------------------|------------------------------|
E|------------------------------|------------------------------|



CHORUS

  Guitar 1
E|------------------------------|------------------------------|
B|------------------------------|------------------------------|
G|---7--7--7--7--7--7--7--7-----|---7--7--7--7--7--7--7--7-----|
D|---7--7--7--7--7--7--7--7-----|---7--7--7--7--7--7--7--7-----|
A|---5--5--5--5--5--5--5--5-----|---5--5--5--5--5--5--5--0-----|
E|------------------------------|------------------------------|

E|------------------------------|------------------------------|
B|------------------------------|------------------------------|
G|------------------------------|------------------------------|
D|---5--5--5--5--5--5--5--5-----|---5--5--5--5--5--5--5--5-----|
A|---5--5--5--5--5--5--5--5-----|---5--5--5--5--5--5--5--5-----|
E|---3--3--3--3--3--3--3--3-----|---3--3--3--3--3--3--3--3-----|

E|------------------------------|------------------------------|
B|------------------------------|------------------------------|
G|---4--4--4--4--4--4--4--4-----|---5--5--5--5--5--5--5--5-----|
D|---4--4--4--4--4--4--4--4-----|---5--5--5--5--5--5--5--5-----|
A|---2--2--2--2--2--2--2--2-----|---3--3--3--3--3--3--3--3-----|
E|------------------------------|------------------------------|

E|------------------------------|------------------------------|
B|------------------------------|------------------------------|
G|------------7-----------7-----|------------7-----------7-----|
D|------7-----------7-----------|------7-----------7-----7-----|
A|---5-----5-----5-----5--------|---5-----5-----5-----5--0-----|
E|------------------------------|------------------------------|

E|------------------------------|------------------------------|
B|------------------------------|------------------------------|
G|------------------------------|------------------------------|
D|---5--5--5--5--5--5--5--5-----|---5--5--5--5--5--5--5--5-----|
A|---5--5--5--5--5--5--5--5-----|---5--5--5--5--5--5--5--5-----|
E|---3--3--3--3--3--3--3--3-----|---3--3--3--3--3--3--3--3-----|

E|------------------------------|------------------------------|
B|------------------------------|------------------------------|
G|---4--4--4--4--4--4--4--4-----|---5--5--5--5--5--5--5--5-----|
D|---4--4--4--4--4--4--4--4-----|---5--5--5--5--5--5--5--5-----|
A|---2--2--2--2--2--2--2--2-----|---3--3--3--3--3--3--3--3-----|
E|------------------------------|------------------------------|


  Guitar 2
E|------------------------------|------------------------------|
B|------------------------------|------------------------------|
G|---7--7--7--7--7--7--7--7-----|---7--7--7--7--7--7--7--7-----|
D|---X--X--X--X--X--X--X--X-----|---X--X--X--X--X--X--X--X-----|
A|---5--5--5--5--5--5--5--5-----|---5--5--5--5--5--5--5--5-----|
E|------------------------------|------------------------------|

E|------------------------------|------------------------------|
B|------------------------------|------------------------------|
G|--11-11-11-11-11-11-11-11-----|--11-11-11-11--7--7--7--7-----|
D|---X--X--X--X--X--X--X--X-----|---X--X--X--X--X--X--X--X-----|
A|---9--9--9--9--9--9--9--9-----|---9--9--9--9--5--5--5--5-----|
E|------------------------------|------------------------------|

E|------------------------------|------------------------------|
B|------------------------------|------------------------------|
G|---7--7--7--7-11-12-11--9-----|---7--7--7--7--7--7--7--7-----|
D|---X--X--X--X--X--X--X--X-----|---X--X--X--X--X--X--X--X-----|
A|---5--5--5--5--9-10--9--7-----|---5--5--5--5--5--5--5--5-----|
E|------------------------------|------------------------------|

E|------------------------------|------------------------------|
B|------------------------------|------------------------------|
G|---7--7--7--7--7--7--7--7-----|---7--7--7--7--7--7--7--7-----|
D|---X--X--X--X--X--X--X--X-----|---X--X--X--X--X--X--X--X-----|
A|---5--5--5--5--5--5--5--5-----|---5--5--5--5--5--5--5--5-----|
E|------------------------------|------------------------------|

E|------------------------------|------------------------------|
B|------------------------------|------------------------------|
G|--11-11-11-11-11-11-11-11-----|--11-11-11-11--7--7--7--7-----|
D|---X--X--X--X--X--X--X--X-----|---X--X--X--X--X--X--X--X-----|
A|---9--9--9--9--9--9--9--9-----|---9--9--9--9--5--5--5--5-----|
E|------------------------------|------------------------------|

E|------------------------------|------------------------------|
B|------------------------------|------------------------------|
G|---7--7--7--7-11-12-11--9-----|---7--7--7--7--7--7--7--7-----|
D|---X--X--X--X--X--X--X--X-----|---X--X--X--X--X--X--X--X-----|
A|---5--5--5--5--9-10--9--7-----|---5--5--5--5--5--5--5--5-----|
E|------------------------------|------------------------------|



Verse 2

  Guitar 1   (Let Ring)
E|--------------------10------------|-------------10-------------------|
B|-------------14-------------------|------14--------------------------|
G|------11-------------------11-----|--------------------12-----12-----|
D|---0------0------0------0---------|---0------0------0------0---------|
A|----------------------------------|----------------------------------|
E|----------------------------------|----------------------------------|

E|--------------------10------------|-------------10-------------------|
B|-------------14-------------------|------14--------------------------|
G|------11-------------------11-----|--------------------12-----12-----|
D|---0------0------0------0---------|---0------0------0------0---------|
A|----------------------------------|----------------------------------|
E|----------------------------------|----------------------------------|

E|--------------------10------------|-------------10-------------------|
B|-------------14-------------------|------14--------------------------|
G|------11-------------------11-----|--------------------12-----12-----|
D|---0------0------0------0---------|---0------0------0------0---------|
A|----------------------------------|----------------------------------|
E|----------------------------------|----------------------------------|

E|--------------------10------------|-------------10-------------------|
B|-------------14-------------------|------14--------------------------|
G|------11-------------------11-----|--------------------12-----12-----|
D|---0------0------0------0---------|---0------0------0------0---------|
A|----------------------------------|----------------------------------|
E|----------------------------------|----------------------------------|


  Guitar 2
E|--------------------------|--------------------------|
B|--------------------------|--------------------------|
G|--------------------------|--------------------------|
D|---7----7----7----7-------|---7----7----7----7-------|
A|---5----5----5----5-------|---7----7----7----7-------|
E|--------------------------|---5----5----5----5-------|

E|--------------------------|--------------------------|
B|--------------------------|--------------------------|
G|--------------------------|--------------------------|
D|---7----7----7----7-------|---7----7----7----7-------|
A|---5----5----5----5-------|---5----5----5----5-------|
E|---3----3----3----3-------|---3----3----3----3-------|

E|--------------------------|--------------------------|
B|--------------------------|--------------------------|
G|--------------------------|--------------------------|
D|---7----7----7----7-------|---7----7----7----7-------|
A|---5----5----5----5-------|---7----7----7----7-------|
E|--------------------------|---5----5----5----5-------|

E|--------------------------|--------------------------|
B|--------------------------|--------------------------|
G|--------------------------|--------------------------|
D|---7----7----7----7-------|---7----7----7----7-------|
A|---5----5----5----5-------|---5----5----5----5-------|
E|---3----3----3----3-------|---3----3----3----3-------|


  Guitar 3   (Let Ring)
E|----------------------------------|------------------------------|
B|----------------------------------|------------------------------|
G|---------11------------11---------|--------11----------11--------|
D|---------12------------12---------|--------12----------12--------|
A|----------------------------------|---0----------0--0------0-----|
E|---10----------10--10------10-----|------------------------------|

E|----------------------------------|----------------------------------|
B|----------------------------------|----------------------------------|
G|---------11------------11---------|---------11------------11---------|
D|---------12------------12---------|---------12------------12---------|
A|---10----------10--10------10-----|---10----------10--10------10-----|
E|----------------------------------|----------------------------------|

E|----------------------------------|------------------------------|
B|----------------------------------|------------------------------|
G|---------11------------11---------|--------11----------11--------|
D|---------12------------12---------|--------12----------12--------|
A|----------------------------------|------------------------------|
E|---10----------10--10------10-----|---0----------0--0------0-----|

E|----------------------------------|----------------------------------|
B|----------------------------------|----------------------------------|
G|---------11------------11---------|---------11------------11---------|
D|---------12------------12---------|---------12------------12---------|
A|---10----------10--10------10-----|---10----------10--10------10-----|
E|----------------------------------|----------------------------------|



PRE-CHORUS 2

  Guitar 1
E|-------------------------------------|-------------------------------------|
B|-------------------------------------|-------------------------------------|
G|--11--12--11--12--11--12--11--12-----|--11--12--11--12--11--12--11--12-----|
D|-------------------------------------|-------------------------------------|
A|-------------------------------------|-------------------------------------|
E|-------------------------------------|-------------------------------------|


  Guitar 2
E|------------------------------|------------------------------|
B|------------------------------|------------------------------|
G|---7--7--7--7--7--7--7--7-----|---7--7--7--7--7--7--7--7-----|
D|---7--7--7--7--7--7--7--7-----|---7--7--7--7--7--7--7--7-----|
A|---5--5--5--5--5--5--5--5-----|---5--5--5--5--5--5--5--5-----|
E|------------------------------|------------------------------|


  Guitar 3
E|------------------------------|------------------------------|
B|---7--8--7--8--7--8--7--8-----|---7--8--7--8--7--8--7--8-----|
G|---7--7--7--7--7--7--7--7-----|---7--7--7--7--7--7--7--7-----|
D|------------------------------|------------------------------|
A|------------------------------|------------------------------|
E|------------------------------|------------------------------|



CHORUS
(Same as first Chorus)



BRIDGE

  Guitar 1   (Let Ring)
E|--------------------10------------|-------------10-------------------|
B|-------------14-------------------|------14--------------------------|
G|------11-------------------11-----|--------------------12-----12-----|
D|---0------0------0------0---------|---0------0------0------0---------|
A|----------------------------------|----------------------------------|
E|----------------------------------|----------------------------------|

E|--------------------10------------|-------------10-------------------|
B|-------------14-------------------|------14--------------------------|
G|------11-------------------11-----|--------------------12-----12-----|
D|---0------0------0------0---------|---0------0------0------0---------|
A|----------------------------------|----------------------------------|
E|----------------------------------|----------------------------------|

E|--------------------10------------|-------------10-------------------|
B|-------------14-------------------|------14--------------------------|
G|------11-------------------11-----|--------------------12-----12-----|
D|---0------0------0------0---------|---0------0------0------0---------|
A|----------------------------------|----------------------------------|
E|----------------------------------|----------------------------------|

E|--------------------10------------|-------------10-------------------|
B|-------------14-------------------|------14--------------------------|
G|------11-------------------11-----|--------------------12-----12-----|
D|---0------0------0------0---------|---0------0------0------0---------|
A|----------------------------------|----------------------------------|
E|----------------------------------|----------------------------------|

E|--------------------10------------|-------------10-------------------|
B|-------------14-------------------|------14--------------------------|
G|------11-------------------11-----|--------------------12-----12-----|
D|---0------0------0------0---------|---0------0------0------0---------|
A|----------------------------------|----------------------------------|
E|----------------------------------|----------------------------------|

E|----------------------------------|-----------------------|
B|----------------------------------|-----------------------|
G|------12-----12-----12-----12-----|-----------------------|
D|---0------0------0------0---------|---0-------------------|
A|----------------------------------|-----------------------|
E|----------------------------------|-----------------------|


  Guitar 2
E|------------------------------|------------------------------|
B|------------------------------|------------------------------|
G|---7--7--7--7--7--7--7--7-----|------------------------------|
D|---7--7--7--7--7--7--7--7-----|---7--7--7--7--7--7--7--7-----|
A|---5--5--5--5--5--5--5--5-----|---7--7--7--7--7--7--7--7-----|
E|------------------------------|---5--5--5--5--5--5--5--5-----|

E|------------------------------|------------------------------|
B|------------------------------|------------------------------|
G|------------------------------|------------------------------|
D|---9--9--9--9--9--9--9--9-----|---5--5--5--5--5--5--5--5-----|
A|---9--9--9--9--9--9--9--9-----|---5--5--5--5--5--5--5--5-----|
E|---7--7--7--7--7--7--7--7-----|---3--3--3--3--3--3--3--3-----|

E|------------------------------|------------------------------|
B|------------------------------|------------------------------|
G|---7--7--7--7--7--7--7--7-----|------------------------------|
D|---7--7--7--7--7--7--7--7-----|---7--7--7--7--7--7--7--7-----|
A|---5--5--5--5--5--5--5--5-----|---7--7--7--7--7--7--7--7-----|
E|------------------------------|---5--5--5--5--5--5--5--5-----|

E|------------------------------|------------------------------|
B|------------------------------|------------------------------|
G|------------------------------|------------------------------|
D|---9--9--9--9--9--9--9--9-----|---5--5--5--5--5--5--5--5-----|
A|---9--9--9--9--9--9--9--9-----|---5--5--5--5--5--5--5--5-----|
E|---7--7--7--7--7--7--7--7-----|---3--3--3--3--3--3--3--3-----|

E|------------------------------|------------------------------|
B|------------------------------|------------------------------|
G|------------------------------|------------------------------|
D|---2--2--2--2--2--2--2--2-----|------------------------------|
A|---2--2--2--2--2--2--2--2-----|---5--5--5--5--5--5--5--5-----|
E|---0--0--0--0--0--0--0--0-----|---2--2--2--2--2--2--2--2-----|

E|------------------------------|-----------------------|
B|------------------------------|-----------------------|
G|------------------------------|-----------------------|
D|------------------------------|-----------------------|
A|---5--5--5--5--5--5--5--5-----|---5-------------------|
E|---3--3--3--3--3--3--3--3-----|---3-------------------|


  Guitar 3
E|-----------------------|-----------------------|-----------------------|-----------------------|
B|-----------------------|-----------------------|-----------------------|-----------------------|
G|-----------------------|-----------------------|-----------------------|-----------------------|
D|-----------------------|-----------------------|-----------------------|-----------------------|
A|-----------------------|-----------------------|-----------------------|-----------------------|
E|-----------------------|-----------------------|-----------------------|-----------------------|

E|-----------------------|-----------------------|-----------------------|-----------------------|
B|-----------------------|-----------------------|-----------------------|-----------------------|
G|-----------------------|-----------------------|-----------------------|-----------------------|
D|-----------------------|-----------------------|-----------------------|-----------------------|
A|-----------------------|-----------------------|-----------------------|-----------------------|
E|-----------------------|-----------------------|-----------------------|-----------------------|

E|-----------------------|-----------------------|
B|-----------------------|-----------------------|
G|-----------------------|-----------------------|
D|-----------------------|-----------------------|
A|-----------------------|-----------------------|
E|-----------------------|-----------------------|

E|------------------------------|-----------------------|
B|---7--8--7--8--7--8--7--8-----|---7-------------------|
G|---7--7--7--7--7--7--7--7-----|---7-------------------|
D|------------------------------|-----------------------|
A|------------------------------|-----------------------|
E|------------------------------|-----------------------|



CHORUS
(Same as first and second Chorus)



OUTRO

  Guitar 1
E|------------------------------|------------------------------|
B|------------------------------|------------------------------|
G|---7--7--7--7--7--7--7--7-----|---7--7--7--7--7--7--7--7-----|
D|---7--7--7--7--7--7--7--7-----|---7--7--7--7--7--7--7--7-----|
A|---5--5--5--5--5--5--5--5-----|---5--5--5--5--5--5--5--0-----|
E|------------------------------|------------------------------|

E|------------------------------|------------------------------|
B|------------------------------|------------------------------|
G|------------------------------|------------------------------|
D|---5--5--5--5--5--5--5--5-----|---5--5--5--5--5--5--5--5-----|
A|---5--5--5--5--5--5--5--5-----|---5--5--5--5--5--5--5--5-----|
E|---3--3--3--3--3--3--3--3-----|---3--3--3--3--3--3--3--3-----|

E|------------------------------|------------------------------|
B|------------------------------|------------------------------|
G|---4--4--4--4--4--4--4--4-----|---5--5--5--5--5--5--5--5-----|
D|---4--4--4--4--4--4--4--4-----|---5--5--5--5--5--5--5--5-----|
A|---2--2--2--2--2--2--2--2-----|---3--3--3--3--3--3--3--3-----|
E|------------------------------|------------------------------|

E|------------------------------|------------------------------|
B|------------------------------|------------------------------|
G|---7--7--7--7--7--7--7--7-----|---7--7--7--7--7--7--7--7-----|
D|---7--7--7--7--7--7--7--7-----|---7--7--7--7--7--7--7--7-----|
A|---5--5--5--5--5--5--5--5-----|---5--5--5--5--5--5--5--0-----|
E|------------------------------|------------------------------|

E|------------------------------|------------------------------|
B|------------------------------|------------------------------|
G|------------------------------|------------------------------|
D|---5--5--5--5--5--5--5--5-----|---5--5--5--5--5--5--5--5-----|
A|---5--5--5--5--5--5--5--5-----|---5--5--5--5--5--5--5--5-----|
E|---3--3--3--3--3--3--3--3-----|---3--3--3--3--3--3--3--3-----|

E|------------------------------|------------------------------|
B|------------------------------|------------------------------|
G|---4--4--4--4--4--4--4--4-----|---5--5--5--5--5--5--5--5-----|
D|---4--4--4--4--4--4--4--4-----|---5--5--5--5--5--5--5--5-----|
A|---2--2--2--2--2--2--2--2-----|---3--3--3--3--3--3--3--3-----|
E|------------------------------|------------------------------|


  Guitar 2
E|------------------------------|------------------------------|
B|------------------------------|------------------------------|
G|--14-14-14-14-14-14-14-14-----|---7--7--7--7-11-11-11-11-----|
D|---X--X--X--X--X--X--X--X-----|---X--X--X--X--X--X--X--X-----|
A|--12-12-12-12-12-12-12-12-----|---5--5--5--5--9--9--9--9-----|
E|------------------------------|------------------------------|

E|------------------------------|------------------------------|
B|------------------------------|------------------------------|
G|--14-14-14-14-14-14-14-14-----|---7--7--7--7-11-11-11-11-----|
D|---X--X--X--X--X--X--X--X-----|---X--X--X--X--X--X--X--X-----|
A|--12-12-12-12-12-12-12-12-----|---5--5--5--5--9--9--9--9-----|
E|------------------------------|------------------------------|

E|------------------------------|------------------------------|
B|------------------------------|------------------------------|
G|--14-14-14-14-14-14-14-14-----|---7--7--7--7-11-11-11-11-----|
D|---X--X--X--X--X--X--X--X-----|---X--X--X--X--X--X--X--X-----|
A|--12-12-12-12-12-12-12-12-----|---5--5--5--5--9--9--9--9-----|
E|------------------------------|------------------------------|

  (Sixteenth Notes)   (I spread them out so it would be easier to read)
E|------------------------------------------------------|
B|------------------------------------------------------|
G|--14-14-14-14-14-14-14-14-14-14-14-14-14-14-14-14-----|
D|---X--X--X--X--X--X--X--X--X--X--X--X--X--X--X--X-----|
A|--12-12-12-12-12-12-12-12-12-12-12-12-12-12-12-12-----|
E|------------------------------------------------------|

E|------------------------------------------------------|
B|------------------------------------------------------|
G|---7--7--7--7--7--7--7--7-11-11-11-11-11-11-11-11-----|
D|---X--X--X--X--X--X--X--X--X--X--X--X--X--X--X--X-----|
A|---5--5--5--5--5--5--5--5--9--9--9--9--9--9--9--9-----|
E|------------------------------------------------------|

E|------------------------------------------------------|
B|------------------------------------------------------|
G|--14-14-14-14-14-14-14-14-14-14-14-14-14-14-14-14-----|
D|---X--X--X--X--X--X--X--X--X--X--X--X--X--X--X--X-----|
A|--12-12-12-12-12-12-12-12-12-12-12-12-12-12-12-12-----|
E|------------------------------------------------------|

E|------------------------------------------------------|
B|------------------------------------------------------|
G|---7--7--7--7--7--7--7--7-11-11-11-11-11-11-11-11-----|
D|---X--X--X--X--X--X--X--X--X--X--X--X--X--X--X--X-----|
A|---5--5--5--5--5--5--5--5--9--9--9--9--9--9--9--9-----|
E|------------------------------------------------------|

  (Back to Eighth Notes)
E|-----------------------------|-----------------------------|
B|-----------------------------|-----------------------------|
G|--11-12-11--9----7--7--7-----|--11-12-11--9----7--7--7-----|
D|---X--X--X--X----X--X--X-----|---X--X--X--X----X--X--X-----|
A|---9-10--9--7----5--5--5-----|---9-10--9--7----5--5--5-----|
E|-----------------------------|-----------------------------|



OUTRO B

  Guitar 1
E|-----------------------|-----------------------|-----------------------|-----------------------|
B|-----------------------|-----------------------|-----------------------|-----------------------|
G|---7-------------------|-----------------------|-----------------------|-----------------------|
D|---7-------------------|-----------------------|-----------------------|-----------------------|
A|---5-------------------|-----------------------|-----------------------|-----------------------|
E|-----------------------|-----------------------|-----------------------|-----------------------|

E|-----------------------|-----------------------|
B|-----------------------|-----------------------|
D|-----------------------|-----------------------|
G|-----------------------|-----------------------|
A|-----------------------|-----------------------|
E|-----------------------|-----------------------|


  Guitar 2
E|-----------------------|-----------------------|-----------------------|-----------------------|
B|-----------------------|-----------------------|-----------------------|-----------------------|
G|---7-------------------|-----------------------|-----------------------|-----------------------|
D|---X-------------------|-----------------------|-----------------------|-----------------------|
A|---5-------------------|-----------------------|-----------------------|-----------------------|
E|-----------------------|-----------------------|-----------------------|-----------------------|

E|-----------------------|-----------------------|
B|-----------------------|-----------------------|
D|-----------------------|-----------------------|
G|-----------------------|-----------------------|
A|-----------------------|-----------------------|
E|-----------------------|-----------------------|


  Guitar 3   (Let Ring)
E|--------------------10------------|-------------10-------------------|
B|-------------14-------------------|------14--------------------------|
G|------11-------------------11-----|--------------------12-----12-----|
D|---0------0------0------0---------|---0------0------0------0---------|
A|----------------------------------|----------------------------------|
E|----------------------------------|----------------------------------|

E|--------------------10------------|-------------10-------------------|
B|-------------14-------------------|------14--------------------------|
G|------11-------------------11-----|--------------------12-----12-----|
D|---0------0------0------0---------|---0------0------0------0---------|
A|----------------------------------|----------------------------------|
E|----------------------------------|----------------------------------|

E|-------------------------------------|-----------------------|
B|-------------------------------------|-----------------------|
G|--11--12--11--12--11--12--11--12-----|--11-------------------|
D|---0---------------------------------|---0-------------------|
A|-------------------------------------|-----------------------|
E|-------------------------------------|-----------------------|





Thats Keeper by Yellowcard.
This is a really sick song.
Hope you like my tab!
Suggest correction
Creating personal tab
Creating personal tab
You can edit any tab online and save it as your Personal.

You can edit, replace or remove any tab part or add personal notes – all changes will be seen only by you.

Personal tabs can be accessed anytime from any device, even offline.
Learn more »
Give kudos to tab author, rate the tab!
1 2 3 4 5
comments
print report bad tab
guest
You may want to rate the tab now too:
select rating
Wanna post a correction for this tab? Suggest correction