Oops, an error
Loading. Please wait.

Lights And Sounds album tab

version 1
version 1
11,159 views 3 this week
8 commentsread comments
1 2 3 4 5
x 7
add to favorites
×
Save as Personal and add changes to this tab that will be seen only by you. Learn more ›
×
You can save this tab as Personal to edit and correct it or add notes. All changes will be seen only by you. Learn more »
launch autoscroll
font size
0
reset
how to read this tab
guitar tuner
edit
Autoscroll
slow
fast
+/-
esc
set tempo
stop
Author
Difficulty
1. Three Flights Up
2. Lights And Sounds
3. Down On My Head
4. Sure Thing Falling
5. City Of Devils
6. Rough Landing, Holly
7. Two Weeks From Twenty
8. Waiting Game
9. Martin Sheen Or JFK
10. Space Travel
11. Grey
12. Words, Hands, Hearts
13. How I Go 	Listen
14. Holly Wood Died


Title - Three Flights Up
Artist- Yellowcard
Album - Lights and Sounds

Tabbed by: Larry A.

Tuning: Standard
Guitar 1 – Clean (tabbed for piano)
Guitar 2 - Clean (tabbed for violin)*

 _________________________
| Instumental (0:00-1:23) |
|_________________________|

Guitar 1
e| |14--14--14--141512--12--12--1214-|10--10--10--101214--14--14--1415-|
B| |o-15--15--15------14--14--14-----|--12--12--12------15--15--15-----|
G| |---------------------------------|---------------------------------|
D| |---------------------------------|---------------------------------|
A| |o--------------------------------|---------------------------------|
E| |---------------------------------|---------------------------------|
  1.
  2.

Guitar 1
e| |12--12--12--121410--10--10--1012-|14--14--14--141512--12--12--1214-|
B| |--14--14--14------12--12--12-----|--15--15--15------14--14--14-----|
G| |---------------------------------|---------------------------------|
D| |---------------------------------|---------------------------------|
A| |---------------------------------|---------------------------------|
E| |---------------------------------|---------------------------------|
  1.
  2.

Guitar 1
e| |10--10--10--101214--14--14--1415-|12--12--12--121410--10--10--1012-|
B| |--12--12--12------15--15--15-----|--14--14--14------12--12--12----o|
G| |---------------------------------|---------------------------------|
D| |---------------------------------|---------------------------------|
A| |---------------------------------|--------------------------------o|
E| |---------------------------------|---------------------------------|
  1.
  2.

Guitar 1
e| |12~------------------------------|
B| |---------------------------------|
G| |---------------------------------|
D| |---------------------------------|
A| |---------------------------------|
E| |---------------------------------|


 ________
| Legend |
|________|

~ - Sustain

 _______
| Notes |
|_______|

Sorry this tab is so short but it's part of my album tab I'm working on and I dont't
want anyone to copy songs on it so I'll post it first. I'm get the violin and piano
chords  down later on.


Title – Lights and Sounds
Artist- Yellowcard
Album – Lights and Sounds

Tabbed by: Larry A

Tuning: Drop D
Guitar 1 – Distortion
Guitar 2 – Distortion

 _________________
|Intro (0:00-0:22)|
|_________________|

Guitar 1
e| |---------------------------------|---------------------------------|
B| |o--------------------------------|--------------------------------o|
G| |---------------------------------|---------------------------------|
D| |-9-9-0-4-5-5-4-5-7-7-5-7-9-9-5-4-|-9-9-0-4-5-5-4-5-2-2-0-0-7-7-5-7-|
A| |o9-9-0-4-5-5-4-5-7-7-5-7-9-9-5-4-|-9-9-0-4-5-5-4-5-2-2-0-0-7-7-5-7o|
D| |-9-9-0-4-5-5-4-5-7-7-5-7-9-9-5-4-|-9-9-0-4-5-5-4-5-2-2-0-0-7-7-5-7-|
  1.
  2.

Guitar 1 & 2
e| |---------------------------------|---------------------------------|
B| |o--------------------------------|--------------------------------o|
G| |---------------------------------|---------------------------------|
D| |-9-9-0-4-5-5-4-5-7-7-5-7-9-9-5-4-|-9-9-0-4-5-5-4-5-2-2-0-0-7-7-5-7-|
A| |o9-9-0-4-5-5-4-5-7-7-5-7-9-9-5-4-|-9-9-0-4-5-5-4-5-2-2-0-0-7-7-5-7o|
D| |-9-9-0-4-5-5-4-5-7-7-5-7-9-9-5-4-|-9-9-0-4-5-5-4-5-2-2-0-0-7-7-5-7-|
  1.
  2.

 _________________
|Verse (0:23-0:40)|
|_________________|

Guitar 1
e| |---------------------------------|---------------------------------|
B| |---------------------------------|---------------------------------|
G| |---------------------------------|---------------------------------|
D| |---------------------------------|---------------------------------|
A| |---------------------------------|---------------------------------|
D| |-9-9-7-9-9-7-5-5-5-5-4-4-4-2-2-0-|-9-9-7-9-9-7-5-5-5-5-4-4-4-2-2-0-|
         Hello you how was the rest        You made it through but never 
                                           the less

Guitar 1
e| |---------------------------------|---------------------------------|
B| |o--------------------------------|--------------------------------o|
G| |---------------------------------|---------------------------------|
D| |---------------------------------|---------------------------------|
A| |o--------------------------------|--------------------------------o|
D| |-9-9-9-7-7-7-5-5-5-5-4-4-4-2-2-0-|-9-9-7-9-9-7-5-5-5-5-4-4-4-2-2-0-|
  1.     I got you out on a wire           You be love and I'll be a liar
  2.     Tell it all and fill up the       But make it loud cause nobody
         air                               there

 ______________________
|Pre-Chorus (0:40-0:48)|
|______________________|

Guitar 1
e| |---------------------------------|---------------------------------|
B| |---------------------------------|---------------------------------|
G| |---------------------------------|---------------------------------|
D| |-4-4-0-9-9-7-5~--5-5-5-5-5-5-5-5-|-4-4-0-9-9-7-5~--5-5-5-5-5-5-5-5-|
A| |-4-4-0-9-9-7-5~--5-5-5-5-5-5-5-5-|-4-4-0-9-9-7-5~--5-5-5-5-5-5-5-5-|
D| |-4-4-0-9-9-7-5~--5-5-5-5-5-5-5-5-|-4-4-0-9-9-7-5~--5-5-5-5-5-5-5-5-|
                     And nobody's                      And nobody's
                     there                             there

Guitar 1
e| |---------------------------------|
B| |---------------------------------|
G| |---------------------------------|
D| |-4-4-0-9-9-7-5~--5-5-5-5-x-x-x-x-|
A| |-4-4-0-9-9-7-5~--5-5-5-5-x-x-x-x-|
D| |-4-4-0-9-9-7-5~--5-5-5-5-x-x-x-x-|

 __________________
|Chorus (0:48-1:11)|
|__________________|

Guitar 1
e| |---------------------------------|---------------------------------|
B| |o--------------------------------|---------------------------------|
G| |---------------------------------|---------------------------------|
D| |-0-0-0-0-0-0-0-0-0-0-0-0-0-0-0-0-|-4-4-4-4-4-4-4-4-4-4-4-4-4-4-4-4-|
A| |o0-0-0-0-0-0-0-0-0-0-0-0-0-0-0-0-|-4-4-4-4-4-4-4-4-4-4-4-4-4-4-4-4-|
D| |-0-0-0-0-0-0-0-0-0-0-0-0-0-0-0-0-|-4-4-4-4-4-4-4-4-4-4-4-4-4-4-4-4-|
  1. Stop, turn, take a look           around    At all the lights and |
  2. Slow, burn, let it all fade       out            Pull the curtain |
                                                                       |
Guitar 2                                                               |
e| |---------------------------------|---------------------------------|
B| |o--------------------------------|---------------------------------|
G| |14141412121211111111111111111111-|14141412121211111111111111111111-|
D| |-x-x-x-x-x-x-x-x-x-x-x-x-x-x-x-x-|-x-x-x-x-x-x-x-x-x-x-x-x-x-x-x-x-|
A| |121212101010-9-9-9-9-9-9-9-9-9-9-|121212101010-9-9-9-9-9-9-9-9-9-9-|
D| |---------------------------------|---------------------------------|

Guitar 1
e| |---------------------------------|---------------------------------|
B| |---------------------------------|--------------------------------o|
G| |---------------------------------|---------------------------------|
D| |-9-9-9-9-9-9-9-9-9-9-9-9-9-9-9-9-|-5-5-5-5-5-5-5-5-5-5-5-5-5-5-5-5-|
A| |-9-9-9-9-9-9-9-9-9-9-9-9-9-9-9-9-|-5-5-5-5-5-5-5-5-5-5-5-5-5-5-5-5o|
D| |-9-9-9-9-9-9-9-9-9-9-9-9-9-9-9-9-|-5-5-5-5-5-5-5-5-5-5-5-5-5-5-5-5-|
  1. Sounds       Let them bring you   here                            |
  2. Down      I wonder where you've   been                            |
                                                                       |
Guitar 2                                                               |
e| |---------------------------------|---------------------------------|
B| |---------------------------------|--------------------------------o|
G| |14141412121211111111111111111111-|-3-3-3-3-3-3-3-3-3-3-5-5-5-7-7-7-|
D| |-x-x-x-x-x-x-x-x-x-x-x-x-x-x-x-x-|-x-x-x-x-x-x-x-x-x-x-x-x-x-x-x-x-|
A| |121212101010-9-9-9-9-9-9-9-9-9-9-|-1-1-1-1-1-1-1-1-1-1-3-3-3-5-5-5o|
D| |---------------------------------|---------------------------------|

 _________________
|Verse (1:11-1:34)|
|_________________|

Guitar 1
e| |---------------------------------|---------------------------------|
B| |o--------------------------------|--------------------------------o|
G| |---------------------------------|---------------------------------|
D| |---------------------------------|---------------------------------|
A| |o--------------------------------|--------------------------------o|
D| |-9-9-9-7-7-7-5-5-5-5-4-4-4-2-2-0-|-9-9-7-9-9-7-5-5-5-5-4-4-4-2-2-0-|
  1.     Make it new but stay in the       Just let go but keep it inside
         lines
  2.     Smile big for everyone            Even when you know what 
                                           they've done
Guitar 1
e| |---------------------------------|---------------------------------|
B| |o--------------------------------|--------------------------------o|
G| |---------------------------------|---------------------------------|
D| |---------------------------------|---------------------------------|
A| |o--------------------------------|--------------------------------o|
D| |-9-9-9-7-7-7-5-5-5-5-4-4-4-2-2-0-|-9-9-7-9-9-7-5-5-5-5-4-4-4-2-2-0-|
  1.     They gave you the end but         Not how to build how tear   |
         not where to start                it apart                    |
  2.     So tell it all and fill up        But make it loud cause      |
         the air                           nobody cares                |
                                                                       |
Guitar 2                                                               |
e| |---------------------------------|---------------------------------|
B| |o7*------------------------------|-7*------7*---------------------o|
G| |-----7*--------------------------|-----7*5*--7*--------------------|
D| |---------7*----------------------|-------------7*------------------|
A| |o--------------------------------|--------------------------------o|
D| |---------------------------------|---------------------------------|

 ______________________
|Pre-Chorus (1:34-1:39)|
|______________________|

Guitar 1
e| |---------------------------------|---------------------------------|
B| |---------------------------------|---------------------------------|
G| |---------------------------------|---------------------------------|
D| |-4-4-0-9-9-7-5~--5-5-5-5-5-5-5-5-|-4-4-0-9-9-7-5~--5-5-5-5-x-x-x-x-|
A| |-4-4-0-9-9-7-5~--5-5-5-5-5-5-5-5-|-4-4-0-9-9-7-5~--5-5-5-5-x-x-x-x-|
D| |-4-4-0-9-9-7-5~--5-5-5-5-5-5-5-5-|-4-4-0-9-9-7-5~--5-5-5-5-x-x-x-x-|
                     And nobody's                      And nobody's
                     there                             there
 __________________
|Chorus (1:40-2:02)|
|__________________|

Guitar 1
e| |---------------------------------|---------------------------------|
B| |o--------------------------------|---------------------------------|
G| |---------------------------------|---------------------------------|
D| |-0-0-0-0-0-0-0-0-0-0-0-0-0-0-0-0-|-4-4-4-4-4-4-4-4-4-4-4-4-4-4-4-4-|
A| |o0-0-0-0-0-0-0-0-0-0-0-0-0-0-0-0-|-4-4-4-4-4-4-4-4-4-4-4-4-4-4-4-4-|
D| |-0-0-0-0-0-0-0-0-0-0-0-0-0-0-0-0-|-4-4-4-4-4-4-4-4-4-4-4-4-4-4-4-4-|
  1. Stop, turn, take a look           around    At all the lights and |
  2. Slow, burn, let it all fade       out            Pull the curtain |
                                                                       |
Guitar 2                                                               |
e| |---------------------------------|---------------------------------|
B| |o--------------------------------|---------------------------------|
G| |14141412121211111111111111111111-|14141412121211111111111111111111-|
D| |-x-x-x-x-x-x-x-x-x-x-x-x-x-x-x-x-|-x-x-x-x-x-x-x-x-x-x-x-x-x-x-x-x-|
A| |121212101010-9-9-9-9-9-9-9-9-9-9-|121212101010-9-9-9-9-9-9-9-9-9-9-|
D| |---------------------------------|---------------------------------|

Guitar 1
e| |---------------------------------|---------------------------------|
B| |---------------------------------|--------------------------------o|
G| |---------------------------------|---------------------------------|
D| |-9-9-9-9-9-9-9-9-9-9-9-9-9-9-9-9-|-5-5-5-5-5-5-5-5-5-5-5-5-5-5-5-5-|
A| |-9-9-9-9-9-9-9-9-9-9-9-9-9-9-9-9-|-5-5-5-5-5-5-5-5-5-5-5-5-5-5-5-5o|
D| |-9-9-9-9-9-9-9-9-9-9-9-9-9-9-9-9-|-5-5-5-5-5-5-5-5-5-5-5-5-5-5-5-5-|
  1. Sounds       Let them bring you   here                            |
  2. Down      I wonder where you've   been                            |
                                                                       |
Guitar 2                                                               |
e| |---------------------------------|---------------------------------|
B| |---------------------------------|--------------------------------o|
G| |14141412121211111111111111111111-|-3-3-3-3-3-3-3-3-3-3-5-5-5-7-7-7-|
D| |-x-x-x-x-x-x-x-x-x-x-x-x-x-x-x-x-|-x-x-x-x-x-x-x-x-x-x-x-x-x-x-x-x-|
A| |121212101010-9-9-9-9-9-9-9-9-9-9-|-1-1-1-1-1-1-1-1-1-1-3-3-3-5-5-5o|
D| |---------------------------------|---------------------------------|

 __________________
|Bridge (2:03-2:48)|
|__________________|

Guitar 1
e| |---------------------------------|---------------------------------|
B| |o--------------------------------|--------------------------------o|
G| |---------------------------------|---------------------------------|
D| |-9-9-0-4-5-5-4-5-7-7-5-7-9-9-5-4-|-9-9-0-4-5-5-4-5-2-2-0-0-7-7-5-7-|
A| |o9-9-0-4-5-5-4-5-7-7-5-7-9-9-5-4-|-9-9-0-4-5-5-4-5-2-2-0-0-7-7-5-7o|
D| |-9-9-0-4-5-5-4-5-7-7-5-7-9-9-5-4-|-9-9-0-4-5-5-4-5-2-2-0-0-7-7-5-7-|
  1.
  2.     I've got a way to work this       I've got a way and you know
         out                               how

Guitar 1
e| |---------------------------------|---------------------------------|
B| |---------------------------------|---------------------------------|
G| |---------------------------------|---------------------------------|
D| |-9-9-0-4-5-5-4-5-7-7-5-7-9-9-5-4-|-9-9-0-4-5-5-4-5-2-2-0-0-7-7-5-7-|
A| |-9-9-0-4-5-5-4-5-7-7-5-7-9-9-5-4-|-9-9-0-4-5-5-4-5-2-2-0-0-7-7-5-7-|
D| |-9-9-0-4-5-5-4-5-7-7-5-7-9-9-5-4-|-9-9-0-4-5-5-4-5-2-2-0-0-7-7-5-7-|
         I've got a way to work this       I've got a way and you know
         out                               how

Guitar 1
e| |---------------------------------|---------------------------------|
B| |o--------------------------------|--------------------------------o|
G| |---------------------------------|---------------------------------|
D| |-9-9-0-4-5-5-4-5-7-7-5-7-9-9-5-4-|-9-9-0-4-5-5-4-5-2-2-0-0-7-7-5-7-|
A| |o9-9-0-4-5-5-4-5-7-7-5-7-9-9-5-4-|-9-9-0-4-5-5-4-5-2-2-0-0-7-7-5-7o|
D| |-9-9-0-4-5-5-4-5-7-7-5-7-9-9-5-4-|-9-9-0-4-5-5-4-5-2-2-0-0-7-7-5-7-|
  1.     I've got a way to work this       I've got a way...
         out
  2.     I've got a way to work this       I've got a way and you know
         out                               how
  3.     I've got a way to work this       I've got a way...
         out
  4.     I've got a way to work this       I've got a way and you know
         out                               how

Guitar 1
e| |---------------------------------|---------------------------------|
B| |---------------------------------|---------------------------------|
G| |---------------------------------|---------------------------------|
D| |-9-9-0-4-5-5-4-5-7-7-5-7-9-9-5-4-|-9\------------------------------|
A| |-9-9-0-4-5-5-4-5-7-7-5-7-9-9-5-4-|-9\------------------------------|
D| |-9-9-0-4-5-5-4-5-7-7-5-7-9-9-5-4-|-9\------------------------------|
         I've got a way to work this       I've got a way...
         out

 __________________
|Chorus (2:48-3:11)|
|__________________|

Guitar 1
e| |---------------------------------|---------------------------------|
B| |o--------------------------------|---------------------------------|
G| |---------------------------------|---------------------------------|
D| |-0-0-0-0-0-0-0-0-0-0-0-0-0-0-0-0-|-4-4-4-4-4-4-4-4-4-4-4-4-4-4-4-4-|
A| |o0-0-0-0-0-0-0-0-0-0-0-0-0-0-0-0-|-4-4-4-4-4-4-4-4-4-4-4-4-4-4-4-4-|
D| |-0-0-0-0-0-0-0-0-0-0-0-0-0-0-0-0-|-4-4-4-4-4-4-4-4-4-4-4-4-4-4-4-4-|
  1. Stop, turn, take a look           around    At all the lights and |
  2. Slow, burn, let it all fade       out            Pull the curtain |
                                                                       |
Guitar 2                                                               |
e| |---------------------------------|---------------------------------|
B| |o--------------------------------|---------------------------------|
G| |14141412121211111111111111111111-|14141412121211111111111111111111-|
D| |-x-x-x-x-x-x-x-x-x-x-x-x-x-x-x-x-|-x-x-x-x-x-x-x-x-x-x-x-x-x-x-x-x-|
A| |121212101010-9-9-9-9-9-9-9-9-9-9-|121212101010-9-9-9-9-9-9-9-9-9-9-|
D| |---------------------------------|---------------------------------|

Guitar 1
e| |---------------------------------|---------------------------------|
B| |---------------------------------|--------------------------------o|
G| |---------------------------------|---------------------------------|
D| |-9-9-9-9-9-9-9-9-9-9-9-9-9-9-9-9-|-5-5-5-5-5-5-5-5-5-5-5-5-5-5-5-5-|
A| |-9-9-9-9-9-9-9-9-9-9-9-9-9-9-9-9-|-5-5-5-5-5-5-5-5-5-5-5-5-5-5-5-5o|
D| |-9-9-9-9-9-9-9-9-9-9-9-9-9-9-9-9-|-5-5-5-5-5-5-5-5-5-5-5-5-5-5-5-5-|
  1. Sounds       Let them bring you   here                            |
  2. Down      I wonder where you've   been                            |
                                                                       |
Guitar 2                                                               |
e| |---------------------------------|---------------------------------|
B| |---------------------------------|--------------------------------o|
G| |14141412121211111111111111111111-|-3-3-3-3-3-3-3-3-3-3-5-5-5-7-7-7-|
D| |-x-x-x-x-x-x-x-x-x-x-x-x-x-x-x-x-|-x-x-x-x-x-x-x-x-x-x-x-x-x-x-x-x-|
A| |121212101010-9-9-9-9-9-9-9-9-9-9-|-1-1-1-1-1-1-1-1-1-1-3-3-3-5-5-5o|
D| |---------------------------------|---------------------------------|

 _________________
|Outro (3:11-3:28)|
|_________________|

Guitar 1
e| |---------------------------------|---------------------------------|
B| |---------------------------------|---------------------------------|
G| |---------------------------------|---------------------------------|
D| |-0-0-0-0-0-0-0-0-0-0-0-0-0-0-0-0-|-4-4-4-4-4-4-4-4-4-4-4-4-4-4-4-4-|
A| |-0-0-0-0-0-0-0-0-0-0-0-0-0-0-0-0-|-4-4-4-4-4-4-4-4-4-4-4-4-4-4-4-4-|
D| |-0-0-0-0-0-0-0-0-0-0-0-0-0-0-0-0-|-4-4-4-4-4-4-4-4-4-4-4-4-4-4-4-4-|
     You earned everything you         found         And painted faces |
                                                                       |
Guitar 2                                                               |
e| |---------------------------------|---------------------------------|
B| |---------------------------------|---------------------------------|
G| |14141412121211111111111111111111-|14141412121211111111111111111111-|
D| |-x-x-x-x-x-x-x-x-x-x-x-x-x-x-x-x-|-x-x-x-x-x-x-x-x-x-x-x-x-x-x-x-x-|
A| |121212101010-9-9-9-9-9-9-9-9-9-9-|121212101010-9-9-9-9-9-9-9-9-9-9-|
D| |---------------------------------|---------------------------------|

Guitar 1
e| |---------------------------------|---------------------------------|
B| |---------------------------------|---------------------------------|
G| |---------------------------------|---------------------------------|
D| |-9-9-9-9-9-9-9-9-9-9-9-9-9-9-9-9-|-5-5-5-5-5-5-5-5-5-5-5-5-5-5-5-5-|
A| |-9-9-9-9-9-9-9-9-9-9-9-9-9-9-9-9-|-5-5-5-5-5-5-5-5-5-5-5-5-5-5-5-5-|
D| |-9-9-9-9-9-9-9-9-9-9-9-9-9-9-9-9-|-5-5-5-5-5-5-5-5-5-5-5-5-5-5-5-5-|
     Frown    I'll say I knew you      when...                         |
                                                                       |
Guitar 2                                                               |
e| |---------------------------------|---------------------------------|
B| |---------------------------------|--------------------------------o|
G| |14141412121211111111111111111111-|-3-3-3-3-3-3-3-3-3-3-5-5-5-7-7-7-|
D| |-x-x-x-x-x-x-x-x-x-x-x-x-x-x-x-x-|-x-x-x-x-x-x-x-x-x-x-x-x-x-x-x-x-|
A| |121212101010-9-9-9-9-9-9-9-9-9-9-|-1-1-1-1-1-1-1-1-1-1-3-3-3-5-5-5o|
D| |---------------------------------|---------------------------------|

Guitar 1
e| |---------------------------------|---------------------------------|
B| |---------------------------------|---------------------------------|
G| |---------------------------------|---------------------------------|
D| |-5\------------------------------|---------------------------------|
A| |-5\------------------------------|---------------------------------|
D| |-5\------------------------------|---------------------------------|
                                                                       |
Guitar 2                                                               |
e| |---------------------------------|---------------------------------|
B| |---------------------------------|---------------------------------|
G| |-7\------------------------------|---------------------------------|
D| |-x-------------------------------|---------------------------------|
A| |-5\------------------------------|---------------------------------|
D| |---------------------------------|---------------------------------|



 ________
| Legend |
|________|

~  - Sustain
\  - Slide down
x  - Mute
7* - Harmonics
 _______
| Notes |
|_______|

UPDATE- I now added the harmonic part and time codes but now I'll try to finish the bridge.


Artist:        Yellowcard
Song Title:    Down On My Head
Album:         Lights And Sounds
Tabbed By:     Jose Jankunas (jankunas_rock@yahoo.com)



NOTES: there are 2 guitars in this song... this is the main one



Intro:
e|-------------------------------------------------------------------|
B|-------------------------------------------------------------------|
G|------------------------------------------7-7-7-7-6-6-6-6-6-6-6-6--|
D|--4-4-4-4-6-6-6-6-7-7-7-7-7-7-7-7-4-4-4-4-x-x-x-x-x-x-x-x-x-x-x-x--|
A|--x-x-x-x-x-x-x-x-x-x-x-x-x-x-x-x-x-x-x-x-5-5-5-5-4-4-4-4-4-4-4-4--|
E|--2-2-2-2-4-4-4-4-5-5-5-5-5-5-5-5-2-2-2-2--------------------------|

Verse:
e|-----------------------------------------------------------------
B|-----------------------------------------------------------------
G|------------------7-7-7-7-7-7-7-7-----------------7-7-7-7-7-7-7-7
D|--7-7-7-7-9-9-9-9-x-x-x-x-x-x-x-x-7-7-7-7-9-9-9-9-x-x-x-x-x-x-x-x
A|--x-x-x-x-x-x-x-x-5-5-5-5-5-5-5-5-x-x-x-x-x-x-x-x-5-5-5-5-5-5-5-5
E|--5-5-5-5-7-7-7-7-----------------5-5-5-5-7-7-7-7----------------

---------------------------------------------------------------------|
---------------------------------------------------------------------|
----------------------------------------7-7-7-7-6-6-6-6-6-6-6-6------|
4-4-4-4-6-6-6-6-7-7-7-7-7-7-7-7-4-4-4-4-x-x-x-x-x-x-x-x-x-x-x-x------| (x2)
x-x-x-x-x-x-x-x-x-x-x-x-x-x-x-x-x-x-x-x-5-5-5-5-4-4-4-4-4-4-4-4------|
2-2-2-2-4-4-4-4-5-5-5-5-5-5-5-5-2-2-2-2------------------------------|


PreChorus:
e|-------------------------------------------------------------------|
B|--9---------------1---------------7--------------7-----------------|
G|--x---------------x---------------x--------------x-----------------|
D|--6---------------7---------------4--------------4-----------------|
A|-------------------------------------------------------------------|
E|-------------------------------------------------------------------|
(let them all ring)

Chorus:
e|-------------------------------------------------------------------|
B|-------------------------------------------------------------------|
G|----------------------------------7-7-7-7-7-7-7-7------------------|
D|--4-4-4-4-4-4-4-4-7-7-7-7-7-7-7-7-7-7-7-7-7-7-7-7-7-7-7-7-6-6-6-6--| (X2)
A|--4-4-4-4-4-4-4-4-7-7-7-7-7-7-7-7-5-5-5-5-5-5-5-5-7-7-7-7-7-7-7-7--|
E|--2-2-2-2-2-2-2-2-5-5-5-5-5-5-5-5-----------------5-5-5-5-4-4-4-4--|

-Verse (the first part are the first 3 chords from the verse)

-PreChorus

-Chorus (X4)

Bridge:
e|-----------------------------------------|
B|-----------------------------------------|
G|-----------------------------------------|
D|--4444-4447777-7779999-99-7--9--7--6--7--|
A|--4444-4447777-7779999-99-7--9--7--6--7--|
E|--2222-2225555-5557777-77-5--7--5--4--5--|

(voices start)
e|-------------------------------------------------------------------|
B|-------------------------------------------------------------------|
G|--11111111111111119-9-9-9-9-9-9-9-4-4-4-4-4-4-4-4-4-4-4-4-4-4-4-4--|
D|--11111111111111119-9-9-9-9-9-9-9-4-4-4-4-4-4-4-4-4-4-4-4-4-4-4-4--|
A|--9-9-9-9-9-9-9-9-7-7-7-7-7-7-7-7-2-2-2-2-2-2-2-2-2-2-2-2-2-2-2-2--|
E|------------------------------------------------.------------------|
(does 1s are 11s)

the final chord: e|-------------------------------------|
                 B|-------------------------------------|
                 G|--7-7-7-7-7-7-7-7-7-7-7-7-7-7-7-7-7--|
                 D|--7-7-7-7-7-7-7-7-7-7-7-7-7-7-7-7-7--|
                 A|--5-5-5-5-5-5-5-5-5-5-5-5-5-5-5-5-5--|
                 E|-------------------------------------|

(GOES WHERE THE "." IS)

e|--------------------------------------------------------------|
B|--------------------------------------------------------------|
G|------------------7-7-7-7-7-7-7-7-----------------7--6--4--6--|
D|--7-7-7-7-9-9-9-9-x-x-x-x-x-x-x-x-7-7-7-7-9-9-9-9-x--x--x--x--|
A|--x-x-x-x-x-x-x-x-5-5-5-5-5-5-5-5-x-x-x-x-x-x-x-x-5--4--2--4--|
E|--5-5-5-5-7-7-7-7-----------------5-5-5-5-7-7-7-7-------------|

-Chorus (x2)

Final Chorus:
e|-------------------------------------------------------------------|
B|-------------------------------------------------------------------|
G|----------------------------------7-7-6-6-4-4----------------------|
D|--4-4-4-4-4-4-4-4-7-7-7-7-7-7-7-7-x-x-x-x-x-x-7-7-6-6-6-6-6-6-6-6--| (x2)
A|--4-4-4-4-4-4-4-4-7-7-7-7-7-7-7-7-5-5-4-4-2-2-x-x-x-x-x-x-x-x-x-x--|
E|--2-2-2-2-2-2-2-2-5-5-5-5-5-5-5-5-------------5-5-4-4-4-4-4-4-4-4--|

Sure Thing Falling
Yellowcard

Okay, this is an amazing song off of the new album "Lights and Sounds". With this
album they made the elec. violin sound alot like an elec. guitar. That makes it
very hard to figure out parts. Everything in this tab is as close to perfect as
can be. I wont say its perfect cuz there are always things in recordings that you
cant figure out. This is in a format for a band to play (without a violin, just 2
guitars) I've split it up into guitar 1 and 2 so whoever is playing guitar 1 sings,
cuz thats how my band does it. Anyway, Enjoy

                              Gtr. 1
Harmonic *
Palm Mute .
Slide /

 Intro:
D|-------------------------------|----------------------------------|
A|–------------------------------|----------------------------7*----|
F|-------------------------------|------------------------------7*--|
C|--------------------------0-2-4|---------------------------7*-----|
G|----0-5-4-0-4-2—--2-0—--0------|----0-5-4-0-4-2—--2-0—–-0---------|
C|0-5-------------5-----4--------|0-5-------------5-----4-----------|

D|-------------------------------|----|
A|–------------------------------|----|
F|-------------------------------|----|
C|--------------------------0-2-4|(X4)|
G|----0-5-4-0-4-2—--2-0—--0------|----|
C|0-5-------------5-----4--------|----|

Verse: Clean or Very low distortion
(comes in for the second half, all palm muted)
D|----------------------------------------------------------------|
A|–---------------------------------------------------------------|
F|----------------------------------------------------------------|
C|5------0------5------0------2-----5-----0------2-----5-----0~---|
G|5(X16)–0(X16)-5(X16)-0(X16)-2(X8)-5(X8)-0(X16)-2(X8)-5(X8)-0~---|
C|5------0------5------0------2-----5-----0------2-----5-----0~---|
  .      .      .      .      .     .     .      .     .     .

Chorus:
D|-----------------|-----|---------------------------------|----|
A|–----------------|-----|---------------------------------|----|
F|-----------------|-----|----------------5-5-555----------|----|
C|0--------5-------|(X2)-|9-9-9999-2—2-22-5-5-555-0-0-0000-|(X2)|
G|0-(X16)--5-(X16)-|-----|9-9-9999-2-2-22—3-3-333-0-0-0000-|----|
C|0--------5-------|-----|9–9-9999-2-2-22---------0-0-0000-|----|

Verse 2:Clean
D|---------------------|----|---------------------|----|-----------|
A|–--------------------|----|---------------------|----|-All-This--|
F|7-------14-----------|----|12-----16-----11-----|----|-Played----|
C|x-------x------------|(X2)|x-(X8)-x-(X8)-x-(X16)|(X2)|-Twice-----|
G|5(X 16)—12(X 16)-----|----|10-----14-----9------|2nd-|-----------|
C|---------------------|----|---------------------|Time|-----------|

Chorus: Same as first chorus
Bridge: (Gtr. 2 Only)
Break: Fade In On This Note (Distortion)
D|----
A|----
F|----
C|-7*-
G|----
C|----

D|-------------------------------|----|
A|–------------------------------|----|
F|-------------------------------|----|
C|--------------------------0-2-4|(X4)|
G|----0-5-4-0-4-2—--2-0—--0------|----|
C|0-5-------------5-----4--------|----|

D|----------------------------------------------------------------------------|
A|–---------------------------------------------------------------------------|
F|11-----7------14-----14-14-12-12-11-119/6-9-9-9-9-9-9-9/11-7-7-7-7-7-7-7-7--|
C|x-(X8)-x-(X8)-x-(X8)-x--x--x--x--x--x-x-x-x-x-x-x-x-x-x-x--x-x-x-x-x-x-x-x--|
G|9------5------12-----12-12-10-10-9--9-7/4-7-7-7-7-7-7-7/9–-5-5-5-5-5-5-5-5--|
C|----------------------------------------------------------------------------|

D|----------------|----|-------------------|
A|–---------------|----|-------------7*----|
F|11-----9------7-|----|---------------7*--|
C|x-(X8)-x-(X8)-x-|(X8)|-----------7*------|
G|9------7------5-|----|-----0-5-4---------|
C|----------------|----|-0-5---------------|

Last Chorus:
D|----------------------------------------------------------|
A|–---------------------------------------------------------|
F|----------------------------------------------------------|
C|0--------5--------0-------5-5-5-5-5-5-5-5-5-5-5-5-5-5-5-5-|
G|0-(X16)--5-(X16)–-0-(X16)-5-5-5-5-5-5-5-5-5-5-5-5-5-5-5-5-|
C|0--------5--------0-------5-5-5-5-5-5-5-5-5-5-5-5-5-5-5-5-|
						    . . . .

D|-----------------|----|---------------------------------|----|
A|–----------------|----|---------------------------------|----|
F|-----------------|----|----------------5-5-555----------|----|
C|0--------5-------|(X2)|9-9-9999-2—2-22-5-5-555-0-0-0000-|(X2)|
G|0-(X16)--5-(X16)-|----|9-9-9999-2-2-22—3-3-333-0-0-0000-|----|
C|0--------5-------|----|9–9-9999-2-2-22---------0-0-0000-|----|

                                  Gtr. 2

Harmonic *
Palm Mute .
Slide /

Intro:
D|-------------------|----|
A|-------------------|----|
F|-------------------|----|
C|5---------0--------|(X2)|
G|5–(X 16)--0-(X 16)-|----|
C|5---------0--------|----|

Verse: Clean
(this part has a tricky rhythm that is not easily tabbed - figure it out)
D|--------------------------------------------|(Part 2)---------------------|
A|–-------------------------------------------|-----------------------------|
F|--------------------------------------------|-----------------------------|
C|--------------------------------------------|-----------------------------|
G|–-4–5-0-----5—4-0--------4-5-0-------5-4-0--|----4-5-0--------5-4—–-4-5-0-|
C|5---------0------------5-----------0--------|--2-----------/5-----0–------|
Play this again, but do (Part 2) twice the second time going into chorus

Chorus:
D|--------------------------------|----|
A|–-------------------------------|----|
F|11-111111/12/11—--11111111/12/11|----|
C|x--x-x-x--x--x----x-x-x-x--x--x-|(X4)|
G|9--9-9-9-/10/9-—--9-9-9-9-/10/9-|----|
C|--------------------------------|----|

D|-----------------------------------------|
A|-----------------------------------------|
F|7-7-7-77x-9-9-9-99-9-9-9-99x-7-7-7-77----|
C|x-x-x-xxx-x-x-x-xx-x-x-x-xxx-x-x-x-xx----|
G|5-5-5-55x-7-7-7-77-7-7-7-77x-5-5-5-55----|
D|-----------------------------------------|

Verse 2: Same as Verse 1

Chorus: Same as first chorus

Bridge:
D|--------------------------------------------------------|----|
A|–-------------------------------------------------------|----|
F|--------------------------------------------------------|----|
C|9-9--9-9-9--9-5-5--5-5-5--5-0-0--0-0-0--0-7-7--7-7-7--7-|(X2)|
G|9-9--9-9-9--9-5-5--5-5-5--5-0-0--0-0-0--0-7-7--7-7-7--7-|----|
C|9-9--9-9-9--9-5-5--5-5-5--5-0-0--0-0-0--0-7-7--7-7-7--7-|----|

Break:
D|--------------------------------|----|
A|--------------------------------|----|
F|--------------------------------|----|
C|9-------5-------0-------7-------|(X2)|
G|9-(X 8)-5-(X 8)-0-(X 8)-7-(X 8)-|----|
C|9-------5-------0-------7-------|----|

Violin Solo Transcribed:
D|15-14------------------|------|15-14-------17----15-14–-|--------|
A|–-----15-------------15|------|------15-----------------|All-This|
F|---------14-11-12-14—--|-last-|---------14----14--------|Played–-|
C|-----------------------|-time-|-------------------------|Twice—--|
G|-----------------------|-play-|-------------------------|Then...-|
C|-----------------------|-this-|-------------------------|--------|

D|1515151515151414---|
A|–------------------|
F|-------------------|
C|-------------------|
G|-------------------|
C|-------------------|

Last Chorus:
D|--------------------------------|----|----------------------------|
A|–-------------------------------|----|----------------------------|
F|11-111111/12/11—--11111111/12/11|----|11-111111/12/11----111111---|
C|x--x-x-x--x--x----x-x-x-x--x--x-|(X3)|x--x-x-x--x--x-----x-x-x----|
G|9--9-9-9-/10/9-—--9-9-9-9-/10/9-|Then|9–-9-9-9-/10/9-----9-9-9----|
C|--------------------------------|----|----------------------------|

D|17-|-----|----------------|----|---------------|
A|15-|-----|----------------|----|---------------|
F|14-|(X64)|----7-7---------|----|---------------|
C|12-|-----|--------5-5-4-4-|(X7)|0--0-0~--------|
G|---|-----|5-5-------------|----|0--0-0~--------|
C|---|-----|----------------|----|0--0-0~--------|
(This last part i know isn't exactly right, but they have the violin sounding alot
like an elec. guitar so its hard to tell whats doing what. this sounds good and gets
the idea of what they are doing)

Please Email me with corrections - uglyduckling955@hotmail.com
Enjoy

Date 6, Feb 2006

Tab By "TyHAck" Music Hacker (Antonio Leo, Italy)

Title: City of devils
Artist: Yellocard
Album: Lights & Sounds (2006)



notes
    C   C/B   D    G    D#   Bb
e|---------------------------------| 
B|---------------------------------| 
G|--x----x----x---------x----3-----| 
D|--5----5----7----x----6----3-----|
A|--3----2----5----5----8----1-----|
E|-----------------3---------------|
    
intro
e|---------------------------------| 
B|---------------------------------| 
G|---------------------------------| 
D|--5-4-----------5----4-----------|
A|--3-3-2---------3----3-----------|
E|--x-x-0--0-2-3--x----x-----------|



C                C/B
Man once sang to me 
C                                     C/B
Look at you saving the world on your own 
C                            C/B
And I wonder how things gonna be 
C                              C/B
Cos the time here it passes so slow 
C                      C/B
In a city of devils we live 
C                   C/B
A city of devils we live 
C                C/B
Find somebody to learn 
C                                    C/B
Boy you gotta love someone more than yourself 
C                                      C/B
I can feel the fire of the city lights burn 
C                           C/B
It's hard to find angels in hell 



Chorus 
 
       G     D  C
Flying alone I 
                  G          D   C      
Feel like I don't belong and I, 
                          G      D   C
Can't tell righy from the wrong, why, 
                    G      D   C
Have I been here so long 


C                      C/B
In a city of devils we live 
C                   C/B
A city of devils we live 


C                         C/B
Questions I can't seem to find 
C                         C/B
To the answers I already have 
C                              C/B
And you can't see the sky here tonight 
C                              C/B
So I guess I can't make my way back 



Chorus 

Bridge

D#   G

D#   G
 
D#        G                     Bb  
What if I wanted you here right now 
          F                        D#
Would you fall in the fire burn me down 
     G                     Bb  
If I wanted you here right now 
          F                        D#
Would you fall in the fire burn me down 
     G                     Bb    F   G
If I wanted you here right now... 


C                      C/B
In a city of devils we live 
C                      C/B
In a city of devils we live 
C                   C/B
A city of devils we live 
C         C/B
In a city of… 



Chorus 


        G      D  C
I don't belong 
      G      D  C
Don't belong 
                   G      D  C
I've been here too long 
    G      D  C
Too long


Ending....

This tab should be just about as close as you can get...I watched the live video of it 
checked it with this tab and it was almost exact, and i tried to get it as detailed as i 
could, enjoy

Tuning:Standard

Intro:
Both Guitars(x2)
e------------------------------------------------------------------------|
b------------------------------------------------------------------------|
g-----------------------------------4/6666666---------4/66666666---------|
d-14(x16)-----------9(x16)----------4/66666666666-----4/666666666666-----|
a-11----------------7---------------2/4444444xxxx7777-2/44444444xxxx7777-|
E--0----------------0------------------------44440000-----------44445555-|

Verse:
Both Guitars(x1)
e--------------------------------------------------------------------|
b--------------------------------------------------------------------|
g--------------------------------------------------------------------|
d--------------------------------------------------------------------|
a-77-777-777-777-777-777-777-77--------------------------------------|
E-00-000-000-000-000-000-000-00777-99-999-999-99777-99-999-999-99777-|

Verse Cont.
Guitar 1/Singer (x1)
e------------------------------------------------------------------|
b------------------------------------------------------------------|
g------------------------------------------------------------------|
d------------------------------------------------------------------|
a-77-777-777-777-777-777-777-77------------------------------------|
E-00-000-000-000-000-000-000-00777-9r7-9r7-9r7-9r7-9r7-9r7-9r7-9r7-|

e---------------------------------|
b---------------------------------|
g---------------------------------|
d---------------------------------|
a---------------------------------|
E-9r7-9r7-9r7-9r7-9r7-9r7-9r7-9r7-|
Guitar 2/Lead (x1)
e-------------------------------------------------------------------------|
b-------------------------------------------------------------------------|
g-------------------------------------------------------------------------|
d-------------------------------------------------------------------------|
a-77-777-777-777-777-777-777-77---11r9-11r9-11r9-11r9-11r9-11r9-11r9-11r9-|
E-00-000-000-000-000-000-000-00777----------------------------------------|

e---------------------------------|
b---------------------------------|
g---------------------------------|
d---------------------------------|
a-7r6-7r6-7r6-7r6-7r6-7r6-7r6-7r6-|
E---------------------------------|

Pre Chorus
Both Guitars (x1)
e-----------0~----|
b-----------0~----|
g-2~--------2~----|
d-2~--------2~----|
a-0~--------0~----|
E-----------------|

Chorus
Both Guitars (whole thing x1)
e----------------------------------------------------------------------|
b----------------------------------------------------------------------|
g----------------------------------------------------------------------|
d-9999999999999999-9999999999999999--9999999999999999-9999999999999999-|
a-7777777777777xxx-7777777777777777--7777777777777xxx-7777777777777777-|
E-0000000000000777-9999999999999999--0000000000000777-9999999999999999-|

e-000000000000000------------------|
b-000000000000000------------------|
g-222222222222222------------------|
d-222222222222222-4444444444444666-|
a-000000000000000-4444444444444666-|
E-----------------2222222222222444-|

Repeat Intro(x1)

Repeat Verse(whole thing x1)

Repeat Pre Chorus

Repeat Chorus

Bridge
Guitar 1/Singer(silent)
Guitar 2/lead(x2)
e-------------------------------|
b-------------------------------|
g-------------------------------|
d-------------------------------|
a----7----11----9----12----9/11-|
E-00---00----00---00----00------|

Bridge Cont.
Both Guitars
e-------------------------------|
b-------------------------------|
g-------------------------------|
d-------------------------------|
a----7----11----9----12----9/11-|
E-00---00----00---00----00------|

e-------------------------------|
b-------------------------------|
g-------------------------------|
d-------------------------------|
a----7----11----9----12----9/11-|
E-00---00----00---00----00------|

e-------------------------------|
b-------------------------------|
g-------------------------------|
d-------------------------------|
a-00-6-00-9-00-7-00-11-00-9/11--|
E-------------------------------|

e----------------------------|
b----------------------------|
g----------------------------|
d----------------------------|
a-00-6-00-2-00-7-00-4-00-7/9-|
E----------------------------|

Bridge Cont.
Guitar 1/Singer
e-------------------------------|
b-------------------------------|
g-------------------------------|
d-------------------------------|
a----7----11----9----12----9/11-|
E-00---00----00---00----00------|

e-------------------------------|
b-------------------------------|
g-------------------------------|
d-------------------------------|
a----7----11----9----12----9/11-|
E-00---00----00---00----00------|

e-------------------------------|
b-------------------------------|
g-------------------------------|
d-------------------------------|
a-00-6-00-9-00-7-00-11-00-9/11--|
E-------------------------------|

e----------------------------|
b----------------------------|
g----------------------------|
d----------------------------|
a-00-6-00-2-00-7-00-4-00-7/9-|
E----------------------------|
Guitar 2/Lead
e-----------------------------|
b-----------------------------|
g-----------------------------|
d----6----9----7----11----7/9-|
a-----------------------------|
E-00---00---00---00----00-----|

e-----------------------------|
b-----------------------------|
g-----------------------------|
d----6----9----7----11----7/9-|
a-----------------------------|
E-00---00---00---00----00-----|

e-----------------------------|
b-----------------------------|
g-----------------------------|
d----4----7----6----9----7/9--|
a-00---00---00---00---00------|
E-----------------------------|

e-----------------------------|
b-----------------------------|
g-----------------------------|
d----4----1----6----2----6/7--|
a-00---00---00---00---00------|
E-----------------------------|

Last Chorus
Guitar 1/Singer
e----------------------------------------------------------------------|
b----------------------------------------------------------------------|
g----------------------------------------------------------------------|
d-9999999999999999-9999999999999999--9999999999999999-9999999999999999-|
a-7777777777777xxx-7777777777777777--7777777777777xxx-7777777777777777-|
E-0000000000000777-9999999999999999--0000000000000777-9999999999999999-|
Guitar 2/Lead-ring out from last riff with:
e----------|
b----------|
g----------|
d-6~~~~----|
a----------|
E----------|

Last Chorus Cont.
Both Guitars
e-000000000000000------------------|
b-000000000000000------------------|
g-222222222222222------------------|
d-222222222222222-4444444444444666-|
a-000000000000000-4444444444444666-|
E-----------------2222222222222444-|

Repeat Chorus

Repeat Intro

Both Guitars End On:
e-----
b-----
g-----
d-14~-
a-11~-
E--0~-

Hey guys...this song is really pretty, especially this intro, its also played throughout the chorus as well.
Have fun =) 

Splizzy 


e-----5---5-----3----3----------------5-----5--------|
b--------------------------3----3--------------------|
g----------------------------------------------------|
d-3-3--3-3---2-2--2-2--------------3-3---3-3---------|
a-----------------------3-3--3-3---------------------|
e----------------------------------------------------|

e----4----4-------------4----------------------------|
b----------------5-----------------------------------|
g----------------------------------------------------|
d------------------3/4-4-----------------------------|
a-2-2--2-2--3/4-4------------------------------------|
e----------------------------------------------------|

e----5----5----5----5----5----5----5----5------------|
b----------------------------------------------------|
g----------------------------------------------------|
d-3-3--3-3--3-3--3-3--5-5--5-5--5-5--5-5-------------|
a----------------------------------------------------|
e----------------------------------------------------|

^^Don't forget, play this at the chrous as well over the chords!
e-mail me if anything is wrong..im pretty sure its right
p_e_x_i@hotmail.com

<3 xoxo <3

Waitng Game



Intro Em F# G A B C

Verse G Cm

Chorus G Cm



				Martin Sheen or JFK
					by
				   YELLOWCARD

---------------------------------------------------------------------------------------------------
hmmm i wonder if this is illegal since im obviously using copyrighted material from the tab book
 thats not even release yet (if it ever is).
How about the music company thinks before they sue and shut down our tab sites?
Obviously, there are thousand of tabs for songs that have never been released in a music 
in which the
world no longer has access to. Thank you for ultimate-guitar.com
Haha alright, sorry just had to get in my two cents.

Now heres the tab!

Tuning = Drop D

Verse - Guitar 1 - listen for strumming
e|-------------------------------------------------|
B|-------------------------------------------------|
G|--7--nothing but this octave the whole time------|
D|--x----------------------------------------------|
A|--5----------------------------------------------|
E|-------------------------------------------------|

Verse - Guitar 2 - play twice
e|-------------------------------------------------|
B|-------------------------------------------------|
G|--7-7-7-7----7-7---4-4-4-4----2-2-2-2-2-2-2-2----|
D|--7-7-7-7----7-7---4-4-4-4----2-2-2-2-2-2-2-2----|
A|--5-5-5-5----4-4---2-2-2-2----0-0-0-0-0-0-0-0----|
E|-------------------------------------------------|

Pre chorus - Guitar 1
e|-------------------------------------------------|
B|-------------------------------------------------|
G|-------------------------------------------------|
D|---5-just strum that-----------------------------|
A|---5---------------------------------------------|
E|---5---------------------------------------------|

Pre chorus - Guitar 2 - not too sure about this
e|-------------------------------------------------|
B|-------------------------------------------------|
G|--4-4-4-4---------------4-4-4-4---7-7-6-6--------|
D|--x-x-x-x--7-7-7-7------x-x-x-x---x-x-x-x--------|
A|--2-2-2-2--x-x-x-x------2-2-2-2---5-5-4-4--------|
E|-----------7-7-7-7-------------------------------|


Chorus - Guitar 1
e|-------------------------------------------------------|
B|-------------------------------------------------------|
G|--4-4-4-4--4-4-6-7----------7-7-6-4--------------------|
D|--4-4-4-4--x-x-x-x--4-4-4-4-x-x-x-x--5-x8--2-x4--4-x4--|
A|--2-2-2-2--2-2-4-5--4-4-4-4-5-5-4-2--5-----2-----4-----|
E|--------------------4-4-4-4----------5-----2-----4-----|

Chorus - Guitar 2
e|-----------------------------------------------------------|
B|-----------------------------------------------------------|
G|-4-4-4-4--7-7-9-11----------11-11-9-7----------------------|
D|-4-4-4-4--x-x-x--x--4-4-4-4--x--x-x-x--5-x8--2-x4--4-x4----|
A|-2-2-2-2--5-5-7--9--4-4-4-4--9--9-7-5--5-----2-----4-------|
E|--------------------4-4-4-4------------5-----2-----4-------|

After chorus thing, is pretty much same as before chorus

repeat verse, prechorus, chorus and after chorus thing


Bridge - Guitar 1 - probably not how YC plays it ..but sounds the same
e|----------------------------------------------------------|
B|----------------------------------------------------------|
G|-------11--9--------4-2--------4-2--------4------7-----6--|
D|----9---------0---4-----0----4-----0----0------7-----7----|
A|---------------------------------------------5-----0------|
E|--9-------------4----------5----------5-------------------|


Interlude between the two parts of the bridge
e|----------------4 times-then---------------4-------| times
B|---------------------------------------------------|
G|--------4--2-----------------------4--2------------|
D|-----4--------0-----------------4--------0---------|
A|---------------------------------------------------|
E|--5--------------------------2---------------------|

then bridge again for guitar 1
guitar just comes in slowly palmmuting a little louder and louder
e|--------------------------------------------------|
B|--------------------------------------------------|
G|----------------7---------------------------------|
D|--9----4----5---7--7------------------------------|
A|--9----4----5---5--7------------------------------|
E|--9----4----5------7------------------------------|

then just do the prechorus thingy twice and the chorus twice

Title – Space Travel
Artist- Yellowcard
Album – Lights and Sounds

Tabbed by: Larry A

Tuning: Drop D
Guitar 1 – Slight Distortion
Guitar 2 – Slight Distortion

 _________________
|Intro (0:00-0:11)|
|_________________|

Guitar 2
e| |---------|
B| |---------|
G| |---------|
D| |---------|
A| |---------|
D| |-9-9-9-7-|
     * * * *

Guitar 1
e| |---------------------------------|---------------------------------|
B| |---------------------------------|---------------------------------|
G| |11--11---9---9--1211---91211---9-|11--11---9---9---9---9---9---9---|
D| |--12--12--12--12-----------------|--12--12--12--12--11--11--12--12-|
A| |---------------------------------|---------------------------------|
D| |---------------------------------|---------------------------------|
                                                                       |
Guitar 2                                                               |
e| |---------------------------------|---------------------------------|
B| |---------------------------------|---------------------------------|
G| |---------------------------------|---------------------------------|
D| |---------------------4-------4---|-------------4-------------------|
A| |-----5-------5\4-----------------|-----5---------------4-----------|
D| |-9-9---7-7-7-----5-5---5-5-5---5-|-9-9---7-7-7---5-5-5---5-5-5-7\6-|
     * *   * * *     * *   * * *   *   * *   * * *   * * *   * * *

 _________________
|Verse (0:11-0:31)|
|_________________|

Guitar 1
e| |---------------------------------|---------------------------------|
B| |---------------------------------|---------------------------------|
G| |---------------------------------|---------------------------------|
D| |---------------------------------|---------------------------------|
A| |---------------------------------|---------------------------------|
D| |(9)~----(5)~----(0)~-------------|(9)~----(5)~----(7)~-------------|
       I heard a voice last night        It said wake up and open your
                                                                  eyes

Guitar 1
e| |---------------------------------|---------------------------------|
B| |---------------------------------|---------------------------------|
G| |---------------------------------|---------------------------------|
D| |---------------------------------|-----------------7-7-7-7-8-8-8-8-|
A| |---------------------------------|-----------------7-7-7-7-8-8-8-8-|
D| |(9)~----(5)~----(0)~-------------|(9)~----(5)~-----7-7-7-7-8-8-8-8-|
                                                       * * * *         |
       Wake up walk out tonight          She don't care if your dead   |
                                                              or alive |
                                                                       |
Guitar 2                                                               |
e| |---------------------------------|---------------------------------|
B| |---------------------------------|---------------------------------|
G| |---------------------------------|-------------------------3-3-3-3-|
D| |---------------------------------|-------------------------x-x-x-x-|
A| |---------------------------------|-------------------------1-1-1-1-|
D| |---------------------------------|---------------------------------|

 ______________________
|Pre-Chorus (0:31-0:41)|
|______________________|

Guitar 1
e| |---------------------------------|---------------------------------|
B| |---------------------------------|---------------------------------|
G| |---------------------------------|---------------------------------|
D| |-9-9-9-9-x-x-7-7-7-5-5-5-x-0-0-0-|-9-9-9-9-x-x-7-7-7-5-5-5-x-0-0-0-|
A| |-9-9-9-9-x-x-7-7-7-5-5-5-x-0-0-0-|-9-9-9-9-x-x-7-7-7-5-5-5-x-0-0-0-|
D| |-9-9-9-9-x-x-7-7-7-5-5-5-x-0-0-0-|-9-9-9-9-x-x-7-7-7-5-5-5-x-0-0-0-|
                             Dead or   alive                           |
                                                                       |
Guitar 2                                                               |
e| |---------------------------------|---------------------------------|
B| |---------------------------------|---------------------------------|
G| |-4-4-4-4-x-x-4-6-7-6-6-6-x-7-7-7-|-4-4-4-4-x-x-4-6-7-6-6-6-x-7-7-7-|
D| |-x-x-x-x-x-x-x-x-x-x-x-x-x-x-x-x-|-x-x-x-x-x-x-x-x-x-x-x-x-x-x-x-x-|
A| |-2-2-2-2-x-x-2-4-5-4-4-4-x-5-5-5-|-2-2-2-2-x-x-2-4-5-4-4-4-x-5-5-5-|
D| |---------------------------------|---------------------------------|

 _________________
|Verse (0:41-1:01)|
|_________________|

Guitar 1
e| |---------------------------------|---------------------------------|
B| |---------------------------------|---------------------------------|
G| |11--11---9---9--1211---91211---9-|11--11---9---9---9---9---9---9---|
D| |--12--12--12--12-----------------|--12--12--12--12--11--11--12--12-|
A| |---------------------------------|---------------------------------|
D| |---------------------------------|---------------------------------|
       She moves like beams of light     Straight through  In my head  |
                                         this universe                 |
                                                                       |
Guitar 2                                                               |
e| |---------------------------------|---------------------------------|
B| |---------------------------------|---------------------------------|
G| |---------------------------------|---------------------------------|
D| |--\------------------------------|---------------------------------|
A| |---------------------------------|---------------------------------|
D| |--\-----(5)~----(0)~-------------|(9)~----(5)~----(7)~-------------|

Guitar 1
e| |---------------------------------|---------------------------------|
B| |---------------------------------|---------------------------------|
G| |11--11---9---9--1211---91211---9-|11--11---9---9---9---9-----------|
D| |--12--12--12--12-----------------|--12--12--12--12--11--11---------|
A| |---------------------------------|---------------------------------|
D| |---------------------------------|---------------------------------|
       Where I get peace of mind         Free from the stupid things   |
                                                       that I said     |
                                                                       |
Guitar 2                                                               |
e| |---------------------------------|---------------------------------|
B| |---------------------------------|---------------------------------|
G| |---------------------------------|---------------------------------|
D| |---------------------------------|-----------------7-7-7-7-8-8-8-8-|
A| |---------------------------------|-----------------7-7-7-7-8-8-8-8-|
D| |(9)~----(5)~----(0)~-------------|(9)~----(5)~-----7-7-7-7-8-8-8-8-|
                                                       * * * *

 ______________________
|Pre-Chorus (1:01-1:11)|
|______________________|

Guitar 1
e| |---------------------------------|---------------------------------|
B| |---------------------------------|---------------------------------|
G| |---------------------------------|---------------------------------|
D| |-9-9-9-9-x-x-7-7-7-5-5-5-x-0-0-0-|-9-9-9-9-x-x-7-7-7-5-5-5-x-0-0-0-|
A| |-9-9-9-9-x-x-7-7-7-5-5-5-x-0-0-0-|-9-9-9-9-x-x-7-7-7-5-5-5-x-0-0-0-|
D| |-9-9-9-9-x-x-7-7-7-5-5-5-x-0-0-0-|-9-9-9-9-x-x-7-7-7-5-5-5-x-0-0-0-|
                            She's all in my head                       |
                                                                       |
Guitar 2                                                               |
e| |---------------------------------|---------------------------------|
B| |---------------------------------|---------------------------------|
G| |-4-4-4-4-x-x-4-6-7-6-6-6-x-7-7-7-|-4-4-4-4-x-x-4-6-7-6-6-6-x-7-7-7-|
D| |-x-x-x-x-x-x-x-x-x-x-x-x-x-x-x-x-|-x-x-x-x-x-x-x-x-x-x-x-x-x-x-x-x-|
A| |-2-2-2-2-x-x-2-4-5-4-4-4-x-5-5-5-|-2-2-2-2-x-x-2-4-5-4-4-4-x-5-5-5-|
D| |---------------------------------|---------------------------------|

 __________________
|Chorus (1:11-1:30)|
|__________________|

Guitar 1
e| |---------------------------------|---------------------------------|
B| |---------------------------------|---------------------------------|
G| |---------------------------------|---------------------------------|
D| |-0-0-0-0-0-0-0-0-8-8-8-8-8-8-8-8-|-9-9-9-9-9-9-9-9-9-9-9-9-7-7-7-7-|
A| |-0-0-0-0-0-0-0-0-8-8-8-8-8-8-8-8-|-9-9-9-9-9-9-9-9-9-9-9-9-7-7-7-7-|
D| |-0-0-0-0-0-0-0-0-8-8-8-8-8-8-8-8-|-9-9-9-9-9-9-9-9-9-9-9-9-7-7-7-7-|
         Did I get lost while I was    Gone    I traveled space for    |
                                               much too                |
                                                                       |
Guitar 2                                                               |
e| |---------------------------------|---------------------------------|
B| |---------------------------------|---------------------------------|
G| |-7-7-7-7-7-7-7-71010101010101010-|-1111111111111111111111111111111-|
D| |-x-x-x-x-x-x-x-x-x-x-x-x-x-x-x-x-|-x-x-x-x-x-x-x-x-x-x-x-x-x-x-x-x-|
A| |-5-5-5-5-5-5-5-5-8-8-8-8-8-8-8-8-|-9-9-9-9-9-9-9-9-9-9-9-9-9-9-9-9-|
D| |---------------------------------|---------------------------------|

Guitar 1
e| |---------------------------------|---------------------------------|
B| |---------------------------------|---------------------------------|
G| |---------------------------------|---------------------------------|
D| |-0-0-0-0-0-0-0-0-8-8-8-8-8-8-8-8-|-9-9-9-9-9-9-9-9-9-9-9-9-7-7-7-7-|
A| |-0-0-0-0-0-0-0-0-8-8-8-8-8-8-8-8-|-9-9-9-9-9-9-9-9-9-9-9-9-7-7-7-7-|
D| |-0-0-0-0-0-0-0-0-8-8-8-8-8-8-8-8-|-9-9-9-9-9-9-9-9-9-9-9-9-7-7-7-7-|
                                                                 * * * |
     Long  But there's a planet I have Found And you are far away      |
                                                                       |
Guitar 2                                                               |
e| |---------------------------------|---------------------------------|
B| |---------------------------------|---------------------------------|
G| |-7-7-7-7-7-7-7-71010101010101010-|-1111111111111111111111111111111-|
D| |-x-x-x-x-x-x-x-x-x-x-x-x-x-x-x-x-|-x-x-x-x-x-x-x-x-x-x-x-x-x-x-x-x-|
A| |-5-5-5-5-5-5-5-5-8-8-8-8-8-8-8-8-|-9-9-9-9-9-9-9-9-9-9-9-9-9-9-9-9-|
D| |---------------------------------|---------------------------------|

 _________________
|Verse (1:31-1:51)|
|_________________|

Guitar 1
e| |---------------------------------|---------------------------------|
B| |---------------------------------|---------------------------------|
G| |11--11---9---9--1211---91211---9-|11--11---9---9---9---9---9---9---|
D| |--12--12--12--12-----------------|--12--12--12--12--11--11--12--12-|
A| |---------------------------------|---------------------------------|
D| |---------------------------------|---------------------------------|
       Somewhere behind her eyes         Some supernatural energy      |
                                                                       |
Guitar 2                                                               |
e| |---------------------------------|---------------------------------|
B| |---------------------------------|---------------------------------|
G| |---------------------------------|---------------------------------|
D| |----------------------------(4)--|------------(4)------------------|
A| |----(5)-----(5\4)----------------|----(5)-------------(4)----------|
D| |(9)~----(5)~----(0)~-------------|(9)~----(5)~----(7)~-------------|

Guitar 1
e| |---------------------------------|---------------------------------|
B| |---------------------------------|---------------------------------|
G| |11--11---9---9--1211---91211---9-|11--11---9---9---9---9-----------|
D| |--12--12--12--12-----------------|--12--12--12--12--11--11---------|
A| |---------------------------------|---------------------------------|
D| |---------------------------------|---------------------------------|
       Takes me for quite the ride       Across time where I defy      |
                                                               gravity |
                                                                       |
Guitar 2                                                               |
e| |---------------------------------|---------------------------------|
B| |---------------------------------|---------------------------------|
G| |---------------------------------|---------------------------------|
D| |----------------------------(4)--|-------------(4)-7-7-7-7-8-8-8-8-|
A| |----(5)-----(5\4)----------------|----(5)----------7-7-7-7-8-8-8-8-|
D| |(9)~----(5)~----(0)~-------------|(9)~----(5)~-----7-7-7-7-8-8-8-8-|
                                                       * * * *
 ______________________
|Pre-Chorus (1:51-2:00)|
|______________________|

Guitar 1
e| |---------------------------------|---------------------------------|
B| |---------------------------------|---------------------------------|
G| |---------------------------------|---------------------------------|
D| |-9-9-9-9-x-x-7-7-7-5-5-5-x-0-0-0-|-9-9-9-9-x-x-7-7-7-5-5-5-x-0-0-0-|
A| |-9-9-9-9-x-x-7-7-7-5-5-5-x-0-0-0-|-9-9-9-9-x-x-7-7-7-5-5-5-x-0-0-0-|
D| |-9-9-9-9-x-x-7-7-7-5-5-5-x-0-0-0-|-9-9-9-9-x-x-7-7-7-5-5-5-x-0-0-0-|
                               This    Energy                          |
                                                                       |
Guitar 2                                                               |
e| |---------------------------------|---------------------------------|
B| |---------------------------------|---------------------------------|
G| |-4-4-4-4-x-x-4-6-7-6-6-6-x-7-7-7-|-4-4-4-4-x-x-4-6-7-6-6-6-x-7-7-7-|
D| |-x-x-x-x-x-x-x-x-x-x-x-x-x-x-x-x-|-x-x-x-x-x-x-x-x-x-x-x-x-x-x-x-x-|
A| |-2-2-2-2-x-x-2-4-5-4-4-4-x-5-5-5-|-2-2-2-2-x-x-2-4-5-4-4-4-x-5-5-5-|
D| |---------------------------------|---------------------------------|

 __________________
|Chorus (2:01-2:20)|
|__________________|

Guitar 1
e| |---------------------------------|---------------------------------|
B| |---------------------------------|---------------------------------|
G| |---------------------------------|---------------------------------|
D| |-0-0-0-0-0-0-0-0-8-8-8-8-8-8-8-8-|-9-9-9-9-9-9-9-9-9-9-9-9-7-7-7-7-|
A| |-0-0-0-0-0-0-0-0-8-8-8-8-8-8-8-8-|-9-9-9-9-9-9-9-9-9-9-9-9-7-7-7-7-|
D| |-0-0-0-0-0-0-0-0-8-8-8-8-8-8-8-8-|-9-9-9-9-9-9-9-9-9-9-9-9-7-7-7-7-|
         Did I get lost while I was    Gone    I traveled space for    |
                                               much too                |
                                                                       |
Guitar 2                                                               |
e| |---------------------------------|---------------------------------|
B| |---------------------------------|---------------------------------|
G| |-7-7-7-7-7-7-7-71010101010101010-|-1111111111111111111111111111111-|
D| |-x-x-x-x-x-x-x-x-x-x-x-x-x-x-x-x-|-x-x-x-x-x-x-x-x-x-x-x-x-x-x-x-x-|
A| |-5-5-5-5-5-5-5-5-8-8-8-8-8-8-8-8-|-9-9-9-9-9-9-9-9-9-9-9-9-9-9-9-9-|
D| |---------------------------------|---------------------------------|

Guitar 1
e| |---------------------------------|---------------------------------|
B| |---------------------------------|---------------------------------|
G| |---------------------------------|---------------------------------|
D| |-0-0-0-0-0-0-0-0-8-8-8-8-8-8-8-8-|-9-9-9-9-9-9-9-9-9-9-9-9-7-7-7-7-|
A| |-0-0-0-0-0-0-0-0-8-8-8-8-8-8-8-8-|-9-9-9-9-9-9-9-9-9-9-9-9-7-7-7-7-|
D| |-0-0-0-0-0-0-0-0-8-8-8-8-8-8-8-8-|-9-9-9-9-9-9-9-9-9-9-9-9-7-7-7-7-|
     Long  But there's a planet I have Found And you are far away      |
                                                               for now |
                                                                       |
Guitar 2                                                               |
e| |---------------------------------|---------------------------------|
B| |---------------------------------|---------------------------------|
G| |-7-7-7-7-7-7-7-71010101010101010-|-1111111111111111111111111111111-|
D| |-x-x-x-x-x-x-x-x-x-x-x-x-x-x-x-x-|-x-x-x-x-x-x-x-x-x-x-x-x-x-x-x-x-|
A| |-5-5-5-5-5-5-5-5-8-8-8-8-8-8-8-8-|-9-9-9-9-9-9-9-9-9-9-9-9-9-9-9-9-|
D| |---------------------------------|---------------------------------|

 __________________
|Bridge (2:21-3:05)|
|__________________|

Guitar 1
e| |---------------------------------|---------------------------------|
B| |---------------------------------|---------------------------------|
G| |---------------------------------|---------------------------------|
D| |-5~------------------------------|---------------------------------|
A| |-5~------------------------------|-9~--------------7~--------------|
D| |-5~------------------------------|-9~--------------7~--------------|
                                                                       |
Guitar 2                                                               |
e| |---------------------------------|---------------------------------|
B| |---------------------------------|---------------------------------|
G| |-4~------------------------------|---------------------------------|
D| |-x-------------------------------|---------------------------------|
A| |-2~------------------------------|---------------------------------|
D| |---------------------------------|---------------------------------|

Guitar 1
e| |---------------------------------|---------------------------------|
B| |---------------------------------|---------------------------------|
G| |---------------------------------|----------------11---7-7-7-7-7-7-|
D| |---------------------------------|-----------------x---x-x-x-x-x-x-|
A| |-9~--------------7~--------------|-5~--------------9---5-5-5-5-5-5-|
D| |-9~--------------7~--------------|-5~------------------------------|

Guitar 1
e| |---------------------------------|---------------------------------|
B| |---------------------------------|---------------------------------|
G| |11---7-7-7-7-7-7-9---6-6-6-6-6-6-|11---7-7-7-7-7-711---7-7-7-7-7-7-|
D| |-x---x-x-x-x-x-x-x---x-x-x-x-x-x-|-x---x-x-x-x-x-x-x---x-x-x-x-x-x-|
A| |-9---5-5-5-5-5-5-7---4-4-4-4-4-4-|-9---5-5-5-5-5-5-9---5-5-5-5-5-5-|
D| |---------------------------------|---------------------------------|

Guitar 1
e| |---------------------------------|---------------------------------|
B| |---------------------------------|---------------------------------|
G| |11---7-7-7-7-7-712------12-------|11--------------15---------------|
D| |-x---x-x-x-x-x-x-x-------x-------|-x---------------x---------------|
A| |-9---5-5-5-5-5-510------10-------|-9--------------13---------------|
D| |---------------------------------|---------------------------------|
                                         Did I get lost while I was

Guitar 1
e| |---------------------------------|
B| |---------------------------------|
G| |16--------------16---------------|
D| |-x---------------x---------------|
A| |14--------------14---------------|
D| |---------------------------------|
     Gone I traveled space for much too...

 __________________
|Chorus (3:06-3:26)|
|__________________|

Guitar 1
e| |---------------------------------|---------------------------------|
B| |---------------------------------|---------------------------------|
G| |---------------------------------|---------------------------------|
D| |-0-0-0-0-0-0-0-0-8-8-8-8-8-8-8-8-|-9-9-9-9-9-9-9-9-9-9-9-9-7-7-7-7-|
A| |-0-0-0-0-0-0-0-0-8-8-8-8-8-8-8-8-|-9-9-9-9-9-9-9-9-9-9-9-9-7-7-7-7-|
D| |-0-0-0-0-0-0-0-0-8-8-8-8-8-8-8-8-|-9-9-9-9-9-9-9-9-9-9-9-9-7-7-7-7-|
         Did I get lost while I was    Gone    I traveled space for    |
                                               much too                |
                                                                       |
Guitar 2                                                               |
e| |---------------------------------|---------------------------------|
B| |---------------------------------|---------------------------------|
G| |-7-7-7-7-7-7-7-71010101010101010-|-1111111111111111111111111111111-|
D| |-x-x-x-x-x-x-x-x-x-x-x-x-x-x-x-x-|-x-x-x-x-x-x-x-x-x-x-x-x-x-x-x-x-|
A| |-5-5-5-5-5-5-5-5-8-8-8-8-8-8-8-8-|-9-9-9-9-9-9-9-9-9-9-9-9-9-9-9-9-|
D| |---------------------------------|---------------------------------|

Guitar 1
e| |---------------------------------|---------------------------------|
B| |---------------------------------|---------------------------------|
G| |---------------------------------|---------------------------------|
D| |-0-0-0-0-0-0-0-0-8-8-8-8-8-8-8-8-|-9-9-9-9-9-9-9-9-9-9-9-9-7-7-7-7-|
A| |-0-0-0-0-0-0-0-0-8-8-8-8-8-8-8-8-|-9-9-9-9-9-9-9-9-9-9-9-9-7-7-7-7-|
D| |-0-0-0-0-0-0-0-0-8-8-8-8-8-8-8-8-|-9-9-9-9-9-9-9-9-9-9-9-9-7-7-7-7-|
     Long  But there's a planet I have Found And you are far away      |
                                                                       |
                                                                       |
Guitar 2                                                               |
e| |---------------------------------|---------------------------------|
B| |---------------------------------|---------------------------------|
G| |-7-7-7-7-7-7-7-71010101010101010-|-1111111111111111111111111111111-|
D| |-x-x-x-x-x-x-x-x-x-x-x-x-x-x-x-x-|-x-x-x-x-x-x-x-x-x-x-x-x-x-x-x-x-|
A| |-5-5-5-5-5-5-5-5-8-8-8-8-8-8-8-8-|-9-9-9-9-9-9-9-9-9-9-9-9-9-9-9-9-|
D| |---------------------------------|---------------------------------|

 _________________
|Outro (3:27-3:47)|
|_________________|

Guitar 1
e| |---------------------------------|---------------------------------|
B| |---------------------------------|---------------------------------|
G| |---------------------------------|---------------------------------|
D| |-0-0-0-0-0-0-0-0-8-8-8-8-8-8-8-8-|-9-9-9-9-9-9-9-9-0~--------------|
A| |-0-0-0-0-0-0-0-0-8-8-8-8-8-8-8-8-|-9-9-9-9-9-9-9-9-0~--------------|
D| |-0-0-0-0-0-0-0-0-8-8-8-8-8-8-8-8-|-9-9-9-9-9-9-9-9-0~--------------|
           You are far away...         Far away for    now...          |
                                                                       |
Guitar 2                                                               |
e| |---------------------------------|---------------------------------|
B| |---------------------------------|---------------------------------|
G| |-7-7-7-7-7-7-7-71010101010101010-|-11111111111111111---------------|
D| |-x-x-x-x-x-x-x-x-x-x-x-x-x-x-x-x-|-x-x-x-x-x-x-x-x-x---------------|
A| |-5-5-5-5-5-5-5-5-8-8-8-8-8-8-8-8-|-9-9-9-9-9-9-9-9-9---------------|
D| |---------------------------------|---------------------------------|

Guitar 1
e| |---------------------------------|---------------------------------|
B| |---------------------------------|---------------------------------|
G| |---------------------------------|---------------------------------|
D| |---------------------------------|---------------------------------|
A| |---------------------------------|---------------------------------|
D| |-9~------5~------0~--------------|-9~------7~------7~--------------|

 ________
| Legend |
|________|

~ - Sustain
\ - Slide down
x - Mute

 _______
| Notes |
|_______|

I'm going to try to get the violin part but I might get lazy and not do it.


This songs from the new album Lights and Sounds and it hasnt been tabbed yet so i think
i might just do it then. THIS TAB IS 100% CORRECT. This is da first grey tab tabbed so
its good

February 17 2006

Standered tunning

Intro

Not exact strumming
--------------------------------------------------------------|
--------------------------------------------------------------|
-----777777777------------------------------------------------| X2
-----777777777--888888888888----------------------------------|
-----555555555--888888888888----------------------------------|
----------------666666666666----------------------------------|

Verse

--------------------------------------------------------------|
--------------------------------------------------------------|
-----7~-------------------------------------------------------| X2
-----7~----------8~-------------------------------------------|
-----5~----------8~-------------------------------------------|
-----------------6~-------------------------------------------|

--------------------------------------------------------------|
--------------------------------------------------------------|
--------------------------------------------------------------|
--------------------------------------------------------------|
--------------------------------------------------------------|
--------------------------------------------------------------|

Pre Chorus

Not exact strumming

---------------------------------------------------------------|
---------------------------------------------------------------|
-----10-10-10-10-10--------------------------------------------| x1
-----10-10-10-10-10-77777777---55555555---88888888--8-7-8------|
-----8--8--8--8--8--77777777---55555555---88888888--8-7-8------|
--------------------55555555---33333333---66666666--6-5-6------|

Chorus

Not exact strumming
--------------------------------------------------------------|
--------------------------------------------------------------|
-----777777777------------------------------------------------| X2
-----777777777--888888888888----------------------------------|
-----555555555--888888888888----------------------------------|
----------------666666666666----------------------------------|

Verse

--------------------------------------------------------------|
--------------------------------------------------------------|
-----7~-------------------------------------------------------| X2
-----7~----------8~-------------------------------------------|
-----5~----------8~-------------------------------------------|
-----------------6~-------------------------------------------|

Pre Chorus

Not exact strumming

---------------------------------------------------------------|
---------------------------------------------------------------|
-----10-10-10-10-10--------------------------------------------| x1
-----10-10-10-10-10-77777777---55555555---88888888--8-7-8------|
-----8--8--8--8--8--77777777---55555555---88888888--8-7-8------|
--------------------55555555---33333333---66666666--6-5-6------|

After chrous

S means slide
---------------------------------------------------------------|
---------------------------------------------------------------|
-3333333333S-5----------------777777-7-9-10-12-14--------------|
---------------5555555555--77----------------------------------|x1
-1111111111S-3----------------555555-5-7-8--10-12--------------|
---------------3333333333--55----------------------------------|

2nd time around

Not exact strumming

S means slide
---------------------------------------------------------------|
---------------------------------------------------------------|
-3333333333S-5----------------7-9-10-12-14---------------------|
---------------5555555555--77----------------------------------|x1
-1111111111S-3----------------5-7-8--10-12---------------------|
---------------3333333333--55----------------------------------|

Solo kinda thing

--------------------------------------------------------------|
--------------------------------------------------------------|
---7~----5~---------------------------------------------------| x1
---7~----5~---5~---8~-----------------------------------------|
---5~----3~---5~---8~-----------------------------------------|
--------------3~---6~-----------------------------------------|

Pre Chorus

Not exact strumming

---------------------------------------------------------------|
---------------------------------------------------------------|
-----10-10-10-10-10--------------------------------------------| x1
-----10-10-10-10-10-77777777---55555555---88888888--8-7-8------|
-----8--8--8--8--8--77777777---55555555---88888888--8-7-8------|
--------------------55555555---33333333---66666666--6-5-6------|

After chrous

S means slide
---------------------------------------------------------------|
---------------------------------------------------------------|
-3333333333S-5----------------777777-7-9-10-12-14--------------|
---------------5555555555--77----------------------------------|x2
-1111111111S-3----------------555555-5-7-8--10-12--------------|
---------------3333333333--55----------------------------------|

2nd time around

Not exact strumming

S means slide
---------------------------------------------------------------|
---------------------------------------------------------------|
-3333333333S-5----------------7-9-10-12-14---------------------|
---------------5555555555--77----------------------------------|x1
-1111111111S-3----------------5-7-8--10-12---------------------|
---------------3333333333--55----------------------------------|

Chorus

Not exact strumming
--------------------------------------------------------------|
--------------------------------------------------------------|
-----777777777------------------------------------------------| X4
-----777777777--888888888888----------------------------------|
-----555555555--888888888888----------------------------------|
----------------666666666666----------------------------------|

While the chorus is goin u play this

--------------------------------------------------------------|
--------------------------------------------------------------|
---77777777----5555555----------------------------------------| x1
---77777777----5555555---55555555---888888888-----------------|
---55555555----3333333---55555555---888888888-----------------|
-------------------------33333333---666666666-----------------|

And thats it ppl, da first grey tab, tabed enjoy Bitches!

Niv Niruban

Song: Words, Hands, Hearts
Artist: Yellowcard
Album: Lights And Sounds

D tuning

e|---------------------------------------------|there are some more chords
B|---------------------------------------------|that you all should know
G|-7--7-----7-----------------------4--------5-|
D|-7--7-----7-----5--0--2--8---9----4--10----5-|
A|-5--5-----5-----5--0--2--8---9-or-2--10-or-3-|
E|----5-----0-----5--0--2--8---9-------10------|
   D  Dadd4 Dadd9 G5 D5 E5 A#5 B5      C5       



D                       Dadd4              Dadd9
  The whole world was sleeping and i was there
D                            Dadd4         Dadd9 
  you could just sense this feeling in the air

      Em                  G 
like no one's words were good enough
    Bm             C 
to define what we fear
     Em                    G
and no one's words were strong enough
    Bm                C
to fix what happened here


G5     D5         E5   G5        
  lead on to save me lead us all there
      A#5      D5           E5       G5            
find me   some answers one nation beware
       D5         E5         G5
can't tell the difference between myth and man
     A#5        D5       E5             G5    D5(let ring)
or what's necessary or where i should stand


D                     Dadd4                  Dadd9 
  The whole world is different now men have died
D                             Dadd4        Dadd9  
  you could just sense this feeling in our eyes


      Em                 G
like no one's hands are big enough
    Bm              C 
to hold on to this fear
     Em                   G
and no one's hands are strong enough
    Bm                C
to fix what happened here


G5     D5         E5   G5        
  lead on to save me lead us all there
      A#5      D5           E5       G5            
find me   some answers one nation beware
       D5         E5         G5
can't tell the difference between myth and man
     A#5        D5       E5             G5    D5(let ring)
or what's necessary or where i should stand


D                Bm
  So do we dare now
                  Gm 
raise our voices loud
                     A#m                      D
we're searching for something that cannot be found
             Bm
i hear open mouths
                G
and i see open hands
                     A#               D  
but the blinded and silent i can't understand

(Repeat the whole cicle)

D                     Dadd4                    Dadd9
  the whole world is watching with one blank stare
D                          Dadd4            Dadd9 
  i could just sense this feeling of ill repair

      Em                 G
like no one's heart is full enough
    Bm             C 
to keep away this fear
     Em                  G 
and no one's heart is strong enough
    Bm                C
to fix what happened here


G5     D5         E5   G5        
  lead on to save me lead us all there
      A#5      D5            E5             G5      
find me   some answers it's time that you shared
       D5         E5         G5
can't tell the difference between myth and man

or what's necessary or where i should stand

(for this line play this:

e|---------------------------|
B|---------------------------|
G|---------------------------|
D|--5555-5555-5555-5555-555--|
A|--5555-5555-5555-5555-555--|
E|--9999-8888-7777-6666-555--|)

D5               B5
  So do we dare now
                  G5 
raise our voices loud
                     A#5                      D5
we're searching for something that cannot be found
             B5
i hear open mouths
                G5
and i see open hands
                     A#5                  C5     B5
but the blinded and silent i can't understand

End on D5

-------------------------------------------------------------------------------
			     HOW I GO - Yellowcard
-------------------------------------------------------------------------------
Tabbed by: Jordan Elek
Email: burnincheez@aim.com

Tuning: Standard

This tab is NOT 100% the same as the album version. I believe the D string 
is muted when the bass note is on the A string, but I love the sound of the 
chords I have here. If you want to sound like the album, mute the D string.

Chords used:
     
e|--0-----0-----0-----0-----0-----0-----0-----0-----0-----0-----0--|
B|--0-----0-----0-----0-----0-----0-----0-----0-----0-----0-----0--|
G|--9-----9-----9-----9-----9-----9-----9-----6-----4-----2-----1--|
D|--7-----6-----9-----7-----7-----6-----9-----6-----4-----2-----2--|
A|--9-----------------------6-----7-----7-----4-----2-----0-----2--|
E|--------------------------------------------------------------0--|

**Strumming pattern is NOT shown. Listen to the song to figure it out.**

Intro: 
(part 1)                    (part 2) 
e|--0----0----0----0------|----0----0-----0------0--|
B|--0----0----0----0------|----0----0-----0------0--|
G|--9----9----9----9---x2-|----9----9-----9----6----|
D|--7----6~---9~---7~-----|--9----7-----6------9----|
A|--9~--------------------|-------------------------|
E|------------------------|-------------------------|


Verse:
e|--0----0----0----0-0--|
B|--0----0----0----0-0--|
G|--9----9----9----9-9--| x2
D|--6----7----7----7-6--|
A|--7~---9~---6~---6h7~-|
E|----------------------|

Chorus 1:
e|--0---0---0---0---------------------------|
B|--0---0---0---0---------------------------|
G|--6---9---4---2---repeat part 2 of intro--|
D|--6---9---4---2---------------------------|
A|--4---7---2---0---------------------------|
E|------------------------------------------|


Chorus 2:                               ("Flow...")
e|--0---0---0---0---0---0---0---0---0---|--0---0---0---0-----|
B|--0---0---0---0---0---0---0---0---0---|--0---0---0---0-----|
G|--6---9---4---2---1---6---9---4---2---|--4---6---2---1--x2-|
D|--6---9---4---2---2---6---9---4---2---|--4---6---2---2-----|
A|--4---7---2---0---2---4---7---2---0---|--2---4---0---2-----|
E|------------------0-------------------|--------------0-----| 


Bridge: ("Son I am...")

e|--0---0---0---0------|
B|--0---0---0---0------|
G|--6---4---2---1---x2-|
D|--6---4---2---2------|
A|--4---2---0---2------|
E|--------------0------|


End with Intro part 2.



| /  slide up
| \  slide down
| h  hammer-on
| p  pull-off
| ~  vibrato
| +  harmonic
| x  Mute note
===============================================================================

Holly Wood Died
Yellowcard
Standard tuning
3 guitars (one is violin, but in this song you can play it on a guitar)
listen very carefully to hear all 3 guitar parts (trust me they're in there)

Verse 1
Guitar 1
|---------------------------------------------------------------|
|---------------------------------------------------------------|
|---------------------------------------------------------------|
|---------------------------------------------------------------|
|-4444444444444444----------------------------------------------|
|------------------5555555555555-22222222-44444444-555555555555-|
  **************** ************* ******** ******** ************
|---------------------------------------------------------------|
|---------------------------------------------------------------|
|---------------------------------------------------------------|
|---------------------------------------------------------------|
|-4444444444444444----------------------------------------------|
|------------------0000000000000-22222222-44444444-555555555555-|
  **************** ************* ******** ******** ******
Guitar 1 repeats                 |play twice before chorus.....|
Guitar 2 (play this over and over again, its soft in the background)
|-------------|
|-------------|
|---------4---|
|-------2-----|
|-----4-------|
|-------------|
Guitar 3 (listen for timing for when this guitar comes in shortly after guitar 2)may be 
in there somewhere
|-----------------------12~------------1212121212----------|
|------------1212121212-------------------------1212121212-|
|---99999999------------------14141414---------------------|
|----------------------------------------------------------|
|----------------------------------------------------------|
|----------------------------------------------------------|
                              [play 11 not 1]
|-----------------------------111111111--------------------|
|---12121212-1414141414141414------------------------------|
|----------------------------------------------------------|
|----------------------------------------------------------|
|----------------------------------------------------------|
|----------------------------------------------------------|

Chorus
Guitar 1 x2
|--------------------------------------------------------------------|
|--------------------------------------------------------------------|
|--66666666666666666-------------------------------------------------|
|--66666666666666666-77777777777777-99999999999999-7777777777777777--|
|--44444444444444444-77777777777777-99999999999999-7777777777777777--|
|--------------------55555555555555-77777777777777-5555555555555555--|

Guitar 2 x2
|--------------------------------------------------------------------|
|--------------------------------------------------------------------|
|--99999999999999999999999999999999-88888888888888-9999999999999999--|
|--xxxxxxxxxxxxxxxxxxxxxxxxxxxxxxxx-xxxxxxxxxxxxxx-xxxxxxxxxxxxxxxx--|
|--77777777777777777777777777777777-66666666666666-7777777777777777--|
|--------------------------------------------------------------------|

Guitar 3 x4
|--------------------------16-16-------------------------------------|
|--------------------16-16------17-17-16-16-17-17--------------------|
|--------16-16-14-14-------------------------------------------------|
|--14-14-------------------------------------------------------------|
|--------------------------------------------------------------------|
|--------------------------------------------------------------------|

Verse 2
Guitar 1 plays Verse 1 once
Guitar 2 plays Verse 1 once
Guitar 3
|--------------------12~----------12121212----------------------------|
|-----------12121212-----------------------12121212----------12121212-|
|--99999999--------------14141414-------------------14141414----------|
|---------------------------------------------------------------------|
|---------------------------------------------------------------------|
|---------------------------------------------------------------------|

|----------111111111---|
|-14141414-------------|
|----------------------|
|----------------------|
|----------------------|
|----------------------|

Chorus

Solo
Guitar 1
|----------------------------------------------------------------|
|----------------------------------------------------------------|
|---66666666666666-----------------------------------------------|
|---66666666666666-999999999999-77777777777777-2222222222222222--|
|---44444444444444-999999999999-77777777777777-2222222222222222--|
|------------------777777777777-55555555555555-0000000000000000--|

|----------------------------------------------------------------|
|----------------------------------------------------------------|
|---66666666666666-----------------------------------------------|
|---66666666666666-999999999999-77777777777777-1010101010101010--|
|---44444444444444-999999999999-77777777777777-1010101010101010--|
|------------------777777777777-55555555555555-8888888888888888--|

Guitar 2 x2
|----------------------------------------------------------------|
|----------------------------------------------------------------|
|---11-11-----9-9-----9-9----8-8-----6-6----8-8----9-9---11-11---|
|----------------------------------------------------------------|
|----------------------------------------------------------------|
|----------------------------------------------------------------|

Guitar 3 
|-----------------------------------------|
|-----------------------------------------|
|-----------------------------------------|
|--13-13-9-----9/11~---13-13-9------------|
|----------11------------------9-9/11~----|
|-----------------------------------------|
*=pinch harmonic
|----------------------------------------------------12~--|
|--9-9-10-9-7-------------------------------------12------|
|-------------9-11-11b-11b*-11r-9----9--------------------|
|---------------------------------11---11-9-11/14~--------|
|---------------------------------------------------------|
|---------------------------------------------------------|
play really fast
|-------------------------------------------------------------------------|
|-------------------------------------------------------------------------|
|--6-8-6-8-6-9-9-9-6-8-6--8-6-9-9-9-6-8-6-8-6-9-9-9-6-8-6--8-69-9-9-6-8-6-|
|-------------------------------------------------------------------------|
|-------------------------------------------------------------------------|
|-------------------------------------------------------------------------|

|--------------------------------------------------------------------------|
|--------------------------------------------------------------------------|
|-11-11-11-8-9-8-1111-11-8-9-8------8-9-8----------------------------------|
|------------------------------7-11-------11-9----11b-11b------------------|
|----------------------------------------------11-----------9------9b*-----|
|---------------------------------------------------------9---12-9----12-9-|

|---------------------------------------------------|
|---------------------------------------------------|
|-------------------12-11-12-12/14~-12-11-----------|
|-----------------------------------------12-12/14~-|
|-----------9-9-10~---------------------------------|
|-9-12-9-12-----------------------------------------|

New Chorus
Guitar 1
|-------------------------------------------------------------|
|-------------------------------------------------------------|
|--6~---------------------------------------------------------|
|--6~-66666666--7777777777777-999999999999999-77777777777777--|
|--4~-44444444--7777777777777-999999999999999-77777777777777--|
|---------------5555555555555-777777777777777-55555555555555--|

Then play normal chorus for 3 times

Guitar 2
|-------------------------------------------------------------|
|-------------------------------------------------------------|
|-----9999999999999999999999-8888888888888888-99999999999999--|
|-----xxxxxxxxxxxxxxxxxxxxxx-xxxxxxxxxxxxxxxx-xxxxxxxxxxxxxx--|
|-----7777777777777777777777-6666666666666666-77777777777777--|
|-------------------------------------------------------------|

Then play normal chorus for 3 times

Guitar 3 plays same thing as always but comes in on the first A chord.
listen for between the choruses guitar 3 plays this
|-16-14---------------------------------------------|
|-------17-16-17-14----14---------------------------|
|-------------------16----16-14-13-14-13------------|
|----------------------------------------16-14------|
|---------------------------------------------------|
|---------------------------------------------------|

at the end of the last chorus guitar 3 plays this
|-16-14-------------------------------------------------16-17-19~--|
|-------17-16-17-16-14----14----------------14-16-17-19------------|
|----------------------16----16-14-13-14-16------------------------|
|------------------------------------------------------------------|
|------------------------------------------------------------------|
|------------------------------------------------------------------|
Guitar 1 and 2 play E chords 2 times then play this (listen)
|-----------|
|-----------|
|-----------|
|--7-6-4-2--|
|--7-6-4-2--|
|--5-4-2-0--|
   * * *
Guitar 3 between E chords
|------------------------------------------------------------------------|
|------------------------------------------------------------------------|
|------------------------------------------------------------------------|
|---18---18---18---18-19--16---16---16---16-18--14---14---14----------14-|
|-----19---19---19----------19---19---19----------16---16---16--16/18----|
|------------------------------------------------------------------------|

rest of the song is basically E, B, F# over and over again and the violin
uses the same melody as Guitar 3's last part

thats pretty much it, please rate this and add a comment



            
            
Suggest correction
Creating personal tab
Creating personal tab
You can edit any tab online and save it as your Personal.

You can edit, replace or remove any tab part or add personal notes – all changes will be seen only by you.

Personal tabs can be accessed anytime from any device, even offline.
Learn more »
comments
print report bad tab
8 comments total. Showing first comments.
0 reply
z3r0element07 602 Mar 10, 2006 11:01 AM

Did I say you can take my tabs? I'm actually working hard on making the album myself while you just copy and paste. I would give this 1 star but I already got warned...

0 reply
biker2365 10 Mar 17, 2006 05:51 PM

You just copy and pasted other peoples tabs. Im giving it one star

0 reply
mat waters 249 Apr 16, 2006 03:46 PM

Nice work WHO EVA DID IT,i give it 8948676761766714 stars
n one head job from jenna jameson to me........
good work

guest
You may want to rate the tab now too:
select rating
Wanna post a correction for this tab? Suggest correction