Oops, an error
Loading. Please wait.

Ocean Avenue Tab

version 2
version 2

Whole song

Video

  • High quality, easy to follow video lesson.
101,407 views 105 this week
17 commentsread comments
1 2 3 4 5
x 37
add to favorites
launch autoscroll
font size
0
reset
how to read this tab
guitar tuner
×
Best way to learn
"Ocean Avenue"
Autoscroll
slow
fast
+/-
esc
set tempo
stop
Author
Tuning
Ocean Avenue - Yellowcard
Tabbed by: Colbuddy
Email: Colinawthnowena@netscape.net
Tuning: Drop D

[Opening]
E|---------------------------------------------------|
B|---------------------------------------------------|
G|---------------------------------------------------|
D|-2-2-2-2---4-4-4-4-4-4---0-0-0-0---0-0-0-0-0-0-----|
A|-2-2-2-2---4-4-4-4-4-4---0-0-0-0---0-0-0-0-0-0-----|
D|-2-2-2-2---4-4-4-4-4-4---0-0-0-0---0-0-0-0-0-0-----|

[Verse]
Theres a place off......
E|---------------------------------------------------|
B|---------------------------------------------------|
G|---------------------------------------------------|
D|-2-2-2-2---4-4-4-4-4-4---0-0-0-0---0--0-0-0-0-0----|
A|-2-2-2-2---4-4-4-4-4-4---0-0-0-0---0--0-0-0-0-0----|
D|-2-2-2-2---4-4-4-4-4-4---0-0-0-0---0--0-0-0-0-0----|

Tonight.....
E|---------------------------------------------------------------------------|
B|---------------------------------------------------------------------------|
G|----9------9---9----------9------9---9-------------------------------------|
D|--6---6-/7---7----------6---6-/7---7---------------------------------------|
A|-----------------~9--------------------9-7-~9------------------------------|
D|---------------------------------------------------------------------------|

[Chrous]
If I could find you now......
E|----------------------------------------------------------------------------|
B|----------------------------------------------------------------------------|
G|----------------------------------------------------------------------------|
D|-2-2-2-2-2-2-2-2--4-4-4-4-4-4-4-4--0-0-0-0-0-0-0-0--0-0-0-0-0-0-0-0---------|
A|-2-2-2-2-2-2-2-2--4-4-4-4-4-4-4-4--0-0-0-0-0-0-0-0--0-0-0-0-0-0-0-0---------|
D|-2-2-2-2-2-2-2-2--4-4-4-4-4-4-4-4--0-0-0-0-0-0-0-0--0-0-0-0-0-0-0-0---------|

[Second Verse]
Theres a piece of you.....
E|---------------------------------------------------------------------------|
B|---------------------------------------------------------------------------|
G|---------------------------------------------------------------------------|
D|-9-9-9-9---11--11-11-11-11-11---7-7-7-7---7-77777--------------------------|
A|-7-7-7-7---9---9--9--9--9--9----5-5-5-5---5-55555--------------------------|
D|---------------------------------------------------------------------------|

Tonight....
E|---------------------------------------------------------------------------|
B|---------------------------------------------------------------------------|
G|----9------9---9----------9------9---9-------------------------------------|
D|--6---6-/7---7----------6---6-/7---7---------------------------------------|
A|-----------------~9--------------------9-7-~9------------------------------|
D|---------------------------------------------------------------------------|

[Chrous]
If I could find you now......
E|----------------------------------------------------------------------------|
B|----------------------------------------------------------------------------|
G|----------------------------------------------------------------------------|
D|-2-2-2-2-2-2-2-2--4-4-4-4-4-4-4-4--0-0-0-0-0-0-0-0--0-0-0-0-0-0-0-0---------|
A|-2-2-2-2-2-2-2-2--4-4-4-4-4-4-4-4--0-0-0-0-0-0-0-0--0-0-0-0-0-0-0-0---------|
D|-2-2-2-2-2-2-2-2--4-4-4-4-4-4-4-4--0-0-0-0-0-0-0-0--0-0-0-0-0-0-0-0---------|

Opening to Bridge
E|-0-0-0-0---0-0-0-0-0-0---0-0-0-0---0-0-0-0-0-0--|
B|-0-0-0-0---0-0-0-0-0-0---0-0-0-0---0-0-0-0-0-0--|
G|-2-2-2-2---2-2-2-2-2-2---2-2-2-2---2-2-2-2-2-2--|
D|-2-2-2-2---2-2-2-2-2-2---2-2-2-2---2-2-2-2-2-2--|
A|-0-0-0-0---0-0-0-0-0-0---0-0-0-0---0-0-0-0-0-0--|
D|------------------------------------------------|

[Bridge]
Guitar 1
E|----------0----------------0----------------0----------------0-------------|
B|------0-----0---0------0-----0---0------0-----0---0------0-----0---0-------|
G|----2---2-----2------2---2-----2------2---2-----2------2---2-----2---------|
D|--6----------------6----------------6----------------6---------------------|
A|---------------------------------------------------------------------------|
D|---------------------------------------------------------------------------|

Guitar 2
E|--------------------------------------------------------------------------|
B|--------------------------------------------------------------------------|
G|-2-2-2-2-2-2-2-2----------------------------------------------------------|
D|-2-2-2-2-2-2-2-2--4-4-4-4-4-4-4-4--2-2-2-2--6-6-7-7--0-0-0-0-0-0-0-0------|
A|-0-0-0-0-0-0-0-0--4-4-4-4-4-4-4-4--2-2-2-2--6-6-7-7--0-0-0-0-0-0-0-0------|
D|------------------4-4-4-4-4-4-4-4--2-2-2-2--6-6-7-7--0-0-0-0-0-0-0-0------|

[Chrous]
If I could find you now......
E|----------------------------------------------------------------------------|
B|----------------------------------------------------------------------------|
G|----------------------------------------------------------------------------|
D|-2-2-2-2-2-2-2-2--4-4-4-4-4-4-4-4--0-0-0-0-0-0-0-0--0-0-0-0-0-0-0-0---------|
A|-2-2-2-2-2-2-2-2--4-4-4-4-4-4-4-4--0-0-0-0-0-0-0-0--0-0-0-0-0-0-0-0---------|
D|-2-2-2-2-2-2-2-2--4-4-4-4-4-4-4-4--0-0-0-0-0-0-0-0--0-0-0-0-0-0-0-0---------|

[Outro]
E|-----------------------------------------------------------------------------------------|
B|-----------------------------------------------------------------------------------------|
G|-9-9-9-9---1-1--1-1-1-1-1-1-1-1-1-1--7-7-7-7---7-7-7-7-7-7---9-9-9-9---1-1--1-1-1-1-1-1--|
D|-9-9-9-9---1-1--1-1-1-1-1-1-1-1-1-1--7-7-7-7---7-7-7-7-7-7---9-9-9-9---1-1--1-1-1-1-1-1--|
A|-7-7-7-7---9----9---9---9---9---9----5-5-5-5---5-5-5-5-5-5---7-7-7-7---9----9---9---9----|
D|-----------------------------------------------------------------------------------------|

E|-----------------------|
B|-----------------------|
G|-11-11---7--6--4--2----|
D|-11-11---7--6--4--2----|
A|-9--9----5--4--2--0----|
D|-----------------------|

************************************

| /  Slide up
| ~  Vibrato

************************************
Suggest correction
comments
print report bad tab
17 comments total. Showing first comments.
-1 reply
harm0n20 216 Aug 03, 2004 08:00 PM

yeah the little lead part is way wrong man.

0 reply
man utd 10 Dec 23, 2004 07:00 PM

way off

-1 reply
ibikinz 20 May 28, 2005 08:00 PM

i think it sound okay in standerd tuning

guest
You may want to rate the tab now too:
select rating
Wanna post a correction for this tab? Suggest correction