Oops, an error
Loading. Please wait.

One Year Six Months tab

version 3
version 3

Whole song

236 views 9 this week
no commentswrite comment
1 2 3 4 5
3 more votes to show rating
add to favorites
×
Save as Personal and add changes to this tab that will be seen only by you. Learn more ›
×
You can save this tab as Personal to edit and correct it or add notes. All changes will be seen only by you. Learn more »
launch autoscroll
font size
0
reset
how to read this tab
guitar tuner
edit
Autoscroll
slow
fast
+/-
esc
set tempo
stop
Author
About this tab version
This version is designed to be an easy go-to for a single guitarist that wants to play the whole song and be able to sing along. Was this info helpful? Yes No
[Intro]

(0:00)

e|----------------------------------------------------------------------------|
B|---15-15-15--13--12--10--10-10-10-10-10----13-13-13--12--10--8--8-8-8-8-8---|
G|---0--0--0---0---0---0---0--0--0--0--0-----0--0--0---0---0---0--0-0-0-0-0---|
D|----------------------------------------------------------------------------|
A|----------------------------------------------------------------------------|
E|----------------------------------------------------------------------------|
                                                                                 (x2)
e|--------------------------------------------------------------------|-------|
B|---15-15-15--13--12---10-10--12-12---8-8-8-8-8-8-8-8/7-7-7-7-7-7-7-7|/8~----|
G|---0--0--0---0---0----0--0---0--0----0-0-0-0-0-0-0-0/0-0-0-0-0-0-0-0|/0~----|
D|--------------------------------------------------------------------|-------|
A|--------------------------------------------------------------------|-------|
E|--------------------------------------------------------------------|-------|


[Verse]

(0:20)

e|----------------------------------------------------------------------------|
B|-------3---------3------3---------3------3---------3------------------------|
G|-------------0----------------0----------------0----------2-----0-----------|
D|---5-5---5-5---5----4-4---4-4---4----2-2---2-2---2----0-0---0-0---0---------|
A|----------------------------------------------------------------------------|
E|----------------------------------------------------------------------------|
                                                                                 (x2)

e|----------------------------------------------------------------------------|
B|----------------------------------------------------------------------------|
G|-------0---------0------0---------0-------2-----0---2------2-----0---2------|
D|-------------0----------------0-------0-0---0-0---0----0-0---0-0---0--------|
A|---3-3---3-3---3----2-2---2-2---2-------------------------------------------|
E|----------------------------------------------------------------------------|

Sew this up with threads of reason and regret
So I will not forget. I will not forget
How this felt one year six months ago, I know
I cannot forget. I cannot forget


[Chorus]

(0:43)

e|-----3----3----3----3--------3----3--------|
B|-----3----2----3----3--------3----2--------|
G|-----0----3----0----0--------0----3--------|
D|-----0----0----2----0--------2----0--------| x2
A|-----2----0----3----2--------3----0--------|
E|-----3--------------3----------------------|
       S    S    S    S        S    S   

I'm falling into memories of you and things we used to do
Follow me there
A beautiful somewhere
A place that I can share with you


[Bridge]

(1:04)

e|----------------------------------------------------------------------------|
B|---15-15-15--13--12--10--10-10-10-10-10----13-13-13--12--10--8--8-8-8-8-8---|
G|---0--0--0---0---0---0---0--0--0--0--0-----0--0--0---0---0---0--0-0-0-0-0---|
D|----------------------------------------------------------------------------|
A|----------------------------------------------------------------------------|
E|----------------------------------------------------------------------------|

e|--------------------------------------------------------------------|-------|
B|---15-15-15--13--12---10-10--12-12---8-8-8-8-8-8-8-8/7-7-7-7-7-7-7-7|/8~----|
G|---0--0--0---0---0----0--0---0--0----0-0-0-0-0-0-0-0/0-0-0-0-0-0-0-0|/0~----|
D|--------------------------------------------------------------------|-------|
A|--------------------------------------------------------------------|-------|
E|--------------------------------------------------------------------|-------|


[Verse]

(1:15)

e|----------------------------------------------------------------------------|
B|-------3---------3------3---------3------3---------3------------------------|
G|-------------0----------------0----------------0----------2-----0-----------|
D|---5-5---5-5---5----4-4---4-4---4----2-2---2-2---2----0-0---0-0---0---------|
A|----------------------------------------------------------------------------|
E|----------------------------------------------------------------------------|
                                                                                 (x2)

e|----------------------------------------------------------------------------|
B|----------------------------------------------------------------------------|
G|-------0---------0------0---------0-------2-----0---2------2-----0---2------|
D|-------------0----------------0-------0-0---0-0---0----0-0---0-0---0--------|
A|---3-3---3-3---3----2-2---2-2---2-------------------------------------------|
E|----------------------------------------------------------------------------|

I can tell that you don't know me anymore
It's easy to forget, sometimes we just forget
And being on this road is anything but sure
Maybe we'll forget, I hope we don't forget


[Chorus]

(1:36)

e|-----3----3----3----3--------3----3--------|
B|-----3----2----3----3--------3----2--------|
G|-----0----3----0----0--------0----3--------|
D|-----0----0----2----0--------2----0--------| x2
A|-----2----0----3----2--------3----0--------|
E|-----3--------------3----------------------|
       S    S    S    S        S    S   

I'm falling into memories of you and things we used to do
Follow me there
A beautiful somewhere
A place that I can share with you


[Bridge]

(1:57)

e|----------------------------------------------------------------------------|
B|---15-15-15--13--12--10--10-10-10-10-10----13-13-13--12--10--8--8-8-8-8-8---|
G|---0--0--0---0---0---0---0--0--0--0--0-----0--0--0---0---0---0--0-0-0-0-0---|
D|----------------------------------------------------------------------------|
A|----------------------------------------------------------------------------|
E|----------------------------------------------------------------------------|
                                                                                 (x4)
e|----------------------------------------------------------------------------|
B|---15-15-15--13--12---10-(x8)---12-(x8)---10-(x8)---------------------------|
G|---0--0--0---0---0----0---------0---------0---------------------------------|
D|----------------------------------------------------------------------------|
A|----------------------------------------------------------------------------|
E|----------------------------------------------------------------------------|

So many nights, legs tangled tight
Wrap me up in a dream with you
Close up these eyes, try not to cry
All that I've got to pull me through is memories of you


[Chorus]

(2:29)

e|-----3-------------------------------------|
B|-----3-------------------------------------|
G|-----0-------------------------------------|
D|-----0-------------------------------------| x2
A|-----2-------------------------------------|
E|-----3-------------------------------------|
       S

Memories of you
Memories of you
Memories of you


[Chorus/Outro]
 
(2:50)

e|-----3----3----3----3--------3----3--------|
B|-----3----2----3----3--------3----2--------|
G|-----0----3----0----0--------0----3--------|
D|-----0----0----2----0--------2----0--------| x2
A|-----2----0----3----2--------3----0--------|
E|-----3--------------3----------------------|
       S    S    S    S        S    S

I'm falling into memories of you and things we used to do
Follow me there
A beautiful somewhere
A place that we can share

e|-----3----3----3----3--------3----3----3~--|
B|-----3----2----3----3--------3----2----3~--|
G|-----0----3----0----0--------0----0----2~--|
D|-----0----0----2----0--------2----0----0~--|
A|-----2----0----3----2--------3----2--------|
E|-----3--------------3----------------------|
       S    S    S    S        S    S   

Falling into memories of you and things we used to do



************************************

| /  Slide up
| ~  Vibrato
| S  General strumming

************************************
Suggest correction
Creating personal tab
Creating personal tab
You can edit any tab online and save it as your Personal.

You can edit, replace or remove any tab part or add personal notes – all changes will be seen only by you.

Personal tabs can be accessed anytime from any device, even offline.
Learn more »
Give kudos to tab author, rate the tab!
1 2 3 4 5
comments
print report bad tab
guest
You may want to rate the tab now too:
select rating
Wanna post a correction for this tab? Suggest correction