Oops, an error
Loading. Please wait.

Rest In Peace Tab

version 1
version 1

Whole song

  • The other tabs did not have the right Intro/Chorus... Show more

Interactive

196 views 9 this week
no commentswrite comment
1 2 3 4 5
2 more votes to show rating
add to favorites
launch autoscroll
font size
0
reset
how to read this tab
guitar tuner
Autoscroll
slow
fast
+/-
esc
set tempo
stop
Help us to improve Ultimate-Guitar.com Take our survey!
×
Author
Difficulty
Tuning
intermediate
C G C F A D
About this tab version
The other tabs did not have the right Intro/Chorus. Mine also has a more accurate Acoustic (based on what I've seen live). Was this info helpful? Yes No
Tabbed by: Joshua Garcia (joshuag523@aol.com)

Tabs for the song: Rest In Peace by Yellowcard
Please rate and let me know if you have any corrections. Thank you.


Tuning: Drop C (C G C F A D)


[Intro]
Guitar 1/2:
D||-------------------------------------------------------------------|
A||-------------------------------------------------------------------|
F||------0---------------0---------------0---------------0------------|
C||--------7---------------7---------------7---------------7----------| x3
G||----------5---------------5---------------5---------------5--------|
C||--0---------0-0-0-0---------0-0-0-4---------4-4-4-5---------5-5-5--|


D||---------------------------------------------------------------------|
A||---------------------------------------------------------------------|
F||------0---------------0---------------0---------------0--------------|
C||--------7---------------7---------------7---------------7---0-0-0-0--|
G||----------5---------------5---------------5---------------5-4-4b5-5--|
C||--0---------0-0-0-0---------0-0-0-4---------4-4-4-5------------------|



[Verse]
Acoustic:
D||----------------------------------------------------------------------|
A||----------------------------------------------------------------------|
F||----------------------------------------------------------------------|
C||--11---11---11-11-11-11-11---11---11-11-11-0-0---0---0---0-0-0-0-0-0--|
G||--9----9----9--9--9--9--9----9----9--9--9--0-9---9---9---9-9-9-9-9-9--|
C||--9----9----9--9--9--9--9----9----9--9--9--0-0---0---0---0-0-0-0-0-0--|


D||-----------------------------------------------------------|
A||-----------------------------------------------------------|
F||-----------------------------------------------------------|
C||--7---7---7-7-7-7-7---7---7-7-7-0-0---0-0-0-0-0-0-0-0-0-0--|
G||--5---5---5-5-5-5-5---5---5-5-5-0-9---9-9-9-9-9-9-9-9-9-9--|
C||--5---5---5-5-5-5-5---5---5-5-5-0-0---0-0-0-0-0-0-0-0-0-0--|


D||----------------------------------------------------------------------|
A||----------------------------------------------------------------------|
F||----------------------------------------------------------------------|
C||--11---11---11-11-11-11-11---11---11-11-11-0-0---0---0---0-0-0-0-0-0--|
G||--9----9----9--9--9--9--9----9----9--9--9--0-9---9---9---9-9-9-9-9-9--|
C||--9----9----9--9--9--9--9----9----9--9--9--0-0---0---0---0-0-0-0-0-0--|


D||-----------------------------------------------------------|
A||-----------------------------------------------------------|
F||-----------------------------------------------------------|
C||--7---7---7-7-7-7-7---7---7-7-7-0-0----0----0---0---0-0-0--|
G||--5---5---5-5-5-5-5---5---5-5-5-0-9----9----9---9---9-9-9--|
C||--5---5---5-5-5-5-5---5---5-5-5-0-0----0----0---0---0-0-0--|



[Pre-Chorus]
Guitar 1/2:
D||----------------------------------------------------|
A||-------0--------0--------0-----0--------0--------0--|
F||----------7--------7--------------7--------7--------|
C||--/7---------7--------7-----7--------7--------7-----|
G||----------------------------------------------------|
C||----------------------------------------------------|


D||--------------------------------------5-----------|
A||-----0--------0--------0--------5--------5--------|
F||--------7--------7-----------7-----7--------7-----|
C||--7--------7--------7-----7--------------------7--|
G||--------------------------------------------------|
C||--------------------------------------------------|


Acoustic:
D||-------------------------------------------------------------------|
A||-------------------------------------------------------------------|
F||-------------------------------------------------------------------|
C||--4---4-4-4-4-4-4-4-4-4-4-4-4-4-4-7---7-7-7-7-7-7-7-7-7-7-7-7-7-7--| x2
G||--2---2-2-2-2-2-2-2-2-2-2-2-2-2-2-5---5-5-5-5-5-5-5-5-5-5-5-5-5-5--|
C||--2---2-2-2-2-2-2-2-2-2-2-2-2-2-2-5---5-5-5-5-5-5-5-5-5-5-5-5-5-5--|



[Chorus]
Guitar 1/2:
D||----------------------------------|----------------------------------|
A||----------------------------------|----------------------------------|
F||----------------------------------|----------------------------------|
C||--0~----------------4~--------5~--|--0~----------------4~--------5~--|
G||--0~----------------5~--------5~--|--0~----------------5~--------5~--|
C||--0~----------------4~--------5~--|--0~----------------4~--------5~--|


D||----------------------------------|-----------------------------------------------|
A||----------------------------------|-----------------------------------------------|
F||----------------------------------|----------------------------------0------------|
C||--0~----------------4~--------5~--|--0~----------------4~--------------7----------|
G||--0~----------------5~--------5~--|--0~----------------5~----------------5--------|
C||--0~----------------4~--------5~--|--0~----------------4~--------5---------5-5-5--|


D||-------------------------------------------------------------------|
A||-------------------------------------------------------------------|
F||------0---------------0---------------0---------------0------------|
C||--------7---------------7---------------7---------------7----------|
G||----------5---------------5---------------5---------------5--------|
C||--0---------0-0-0-0---------0-0-0-4---------4-4-4-5---------5-5-5--|


D||---------------------------------------------------------------------|
A||---------------------------------------------------------------------|
F||------0---------------0---------------0---------------0--------------|
C||--------7---------------7---------------7---------------7---0-0-0-0--|
G||----------5---------------5---------------5---------------5-4-4b5-5--|
C||--0---------0-0-0-0---------0-0-0-4---------4-4-4-5------------------|



[Verse]
Acoustic:
D||----------------------------------------------------------------------|
A||----------------------------------------------------------------------|
F||----------------------------------------------------------------------|
C||--11---11---11-11-11-11-11---11---11-11-11-0-0---0---0---0-0-0-0-0-0--|
G||--9----9----9--9--9--9--9----9----9--9--9--0-9---9---9---9-9-9-9-9-9--|
C||--9----9----9--9--9--9--9----9----9--9--9--0-0---0---0---0-0-0-0-0-0--|


D||-----------------------------------------------------------|
A||-----------------------------------------------------------|
F||-----------------------------------------------------------|
C||--7---7---7-7-7-7-7---7---7-7-7-0-0---0-0-0-0-0-0-0-0-0-0--|
G||--5---5---5-5-5-5-5---5---5-5-5-0-9---9-9-9-9-9-9-9-9-9-9--|
C||--5---5---5-5-5-5-5---5---5-5-5-0-0---0-0-0-0-0-0-0-0-0-0--|


D||----------------------------------------------------------------------|
A||----------------------------------------------------------------------|
F||----------------------------------------------------------------------|
C||--11---11---11-11-11-11-11---11---11-11-11-0-0---0---0---0-0-0-0-0-0--|
G||--9----9----9--9--9--9--9----9----9--9--9--0-9---9---9---9-9-9-9-9-9--|
C||--9----9----9--9--9--9--9----9----9--9--9--0-0---0---0---0-0-0-0-0-0--|


D||-----------------------------------------------------------|
A||-----------------------------------------------------------|
F||-----------------------------------------------------------|
C||--7---7---7-7-7-7-7---7---7-7-7-0-0----0----0---0---0-0-0--|
G||--5---5---5-5-5-5-5---5---5-5-5-0-9----9----9---9---9-9-9--|
C||--5---5---5-5-5-5-5---5---5-5-5-0-0----0----0---0---0-0-0--|



[Pre-Chorus]
Guitar 1:
D||----------------------------------------------------|
A||-------0--------0--------0-----0--------0--------0--|
F||----------7--------7--------------7--------7--------|
C||--/7---------7--------7-----7--------7--------7-----|
G||----------------------------------------------------|
C||----------------------------------------------------|


D||--------------------------|
A||-----0--------0--------0--|
F||--------7--------7--------|
C||--7--------7--------7-----|
G||--------------------------|
C||--------------------------|


Guitar 2:
D||---------5--------5--------------5--------5--------|
A||------3--------3--------3-----3--------3--------3--|
F||--6---------6--------6-----6--------6--------6-----|
C||---------------------------------------------------|
G||---------------------------------------------------|
C||---------------------------------------------------|


D||--------5--------5--------|
A||-----3--------3--------3--|
F||--6--------6--------6-----|
C||--------------------------|
G||--------------------------|
C||--------------------------|


Guitar 1/2:
D||-----------------7-------------|
A||-----------8----------8----7~--|
F||--------7-----7----------------|
C||--/10--------------------------|
G||-------------------------------|
C||-------------------------------|



[Chorus]
Guitar 1/2:
D||----------------------------------|----------------------------------|
A||----------------------------------|----------------------------------|
F||----------------------------------|----------------------------------|
C||--0~----------------4~--------5~--|--0~----------------4~--------5~--|
G||--0~----------------5~--------5~--|--0~----------------5~--------5~--|
C||--0~----------------4~--------5~--|--0~----------------4~--------5~--|


D||----------------------------------|----------------------------------|
A||----------------------------------|----------------------------------|
F||----------------------------------|----------------------------------|
C||--0~----------------4~--------5~--|--0~----------------4~--------5~--|
G||--0~----------------5~--------5~--|--0~----------------5~--------5~--|
C||--0~----------------4~--------5~--|--0~----------------4~--------5~--|


D||------|--------|
A||------|--------|
F||------|--------|
C||--0~--|--2///--|
G||--0~--|--2///--|
C||--0~--|--2///--|



[Solo]
Guitar 1:
D||-----------------------------------------------------------------|
A||------------------------------------------/10-10~--------14brb~--|
F||--/11-11-11-11~---9---7---6---6h7~-------------------------------|
C||--------------------7---7---7------------------------------------|
G||-----------------------------------------------------------------|
C||-----------------------------------------------------------------|
                       .   .   .

D||--9---------------10-9-----------------------|
A||----10-10--------------10--------------------|
F||----------7/9~------------9\7~-----6---------|
C||--------------------------------------11\7~--|
G||---------------------------------------------|
C||---------------------------------------------|


D||----------------------------------------------------------------------|
A||--7~---7~---7~---10~----8~---h10p8p7-----------------------------10~--|
F||-------------------------------------9---9b11~---9-7-9-11p9p7-9-------|
C||----------------------------------------------------------------------|
G||----------------------------------------------------------------------|
C||----------------------------------------------------------------------|
                                                      .

D||--------------------------17\14-------------14\10------|
A||-----------------------15-------12-------15------------|
F||--11h12-11h12-11h12-14-------------14/16----------12~--|
C||-------------------------------------------------------|
G||-------------------------------------------------------|
C||-------------------------------------------------------|


D||--------------------------------------------------------------|
A||--------------------------------------------------------------|
F||-----14--h15p14p12----12-15-12/14-15-17--h18p17p15------------|
C||--14---------------14------------------------------18-18b19~--|
G||--------------------------------------------------------------|
C||--------------------------------------------------------------|


Guitar 2:
D||---------------------------------------------------------------------------|
A||---------------------------------------------------------------------------|
F||---------------------------------------------------------------------------|
C||--11-11-11-11-11-11-11-11-11-11-11-11-11-11-11-11-0-0-0-0-0-0-0-0-0-0-0-0--|
G||--9--9--9--9--9--9--9--9--9--9--9--9--9--9--9--9--9-9-9-9-9-9-9-9-9-9-9-9--|
C||--9--9--9--9--9--9--9--9--9--9--9--9--9--9--9--9--0-0-0-0-0-0-0-0-0-0-0-0--|


D||-----------------------------------------------------------|
A||-----------------------------------------------------------|
F||-----------------------------------------------------------|
C||--7-7-7-7-7-7-7-7-7-7-7-7-7-7-7-7-0-0-0-0-0-0-0-0-0-0-0-0--|
G||--5-5-5-5-5-5-5-5-5-5-5-5-5-5-5-5-9-9-9-9-9-9-9-9-9-9-9-9--|
C||--5-5-5-5-5-5-5-5-5-5-5-5-5-5-5-5-0-0-0-0-0-0-0-0-0-0-0-0--|


D||---------------------------------------------------------------------------|
A||---------------------------------------------------------------------------|
F||---------------------------------------------------------------------------|
C||--11-11-11-11-11-11-11-11-11-11-11-11-11-11-11-11-0-0-0-0-0-0-0-0-0-0-0-0--|
G||--9--9--9--9--9--9--9--9--9--9--9--9--9--9--9--9--9-9-9-9-9-9-9-9-9-9-9-9--|
C||--9--9--9--9--9--9--9--9--9--9--9--9--9--9--9--9--0-0-0-0-0-0-0-0-0-0-0-0--|


D||---------------------------------------------------------|
A||---------------------------------------------------------|
F||---------------------------------------------------------|
C||--7-7-7-7-7-7-7-7-7-7-7-7-7-7-7-7-7-7-7-7-7-7-7-7-7-7-7--|
G||--5-5-5-5-5-5-5-5-5-5-5-5-5-5-5-5-5-5-5-5-5-5-5-5-5-5-5--|
C||--5-5-5-5-5-5-5-5-5-5-5-5-5-5-5-5-5-5-5-5-5-5-5-5-5-5-5--|



[Chorus]
Guitar 1/2:
D||-------------------------------------------------------------------|
A||-------------------------------------------------------------------|
F||------0---------------0---------------0---------------0------------|
C||--------7---------------7---------------7---------------7----------| x3
G||----------5---------------5---------------5---------------5--------|
C||--0---------0-0-0-0---------0-0-0-4---------4-4-4-5---------5-5-5--|


D||-------------------------------------------------------------------|
A||-------------------------------------------------------------------|
F||------0---------------0---------------0---------------0------------|
C||--------7---------------7---------------7---------------7---0~-----|
G||----------5---------------5---------------5---------------5-4b5~---|
C||--0---------0-0-0-0---------0-0-0-4---------4-4-4-5----------------|



[Outro]
Guitar 1/2:
D||-------------------------------------------------------------------|
A||-------------------------------------------------------------------|
F||------0---------------0---------------0---------------0------------|
C||--------7---------------7---------------7---------------7----------|
G||----------5---------------5---------------5---------------5--------|
C||--0---------0-0-0-0---------0-0-0-4---------4-4-4-5---------5-5-5--|


D||-------------------------------------------------------------------|
A||-------------------------------------------------------------------|
F||------0---------------0---------------0---------------0------------|
C||--------7---------------7---------------7---------------7---0~-----|
G||----------5---------------5---------------5---------------5-4b5~---|
C||--0---------0-0-0-0---------0-0-0-4---------4-4-4-5----------------|


D||-------------------------------------------------------------------|
A||-------------------------------------------------------------------|
F||------0---------------0---------------0---------------0------------|
C||--------7---------------7---------------7---------------7----------|
G||----------5---------------5---------------5---------------5--------|
C||--0---------0-0-0-0---------0-0-0-4---------4-4-4-5---------5-5-5--|


D||-------------------------------------------------------------------|
A||-------------------------------------------------------------------|
F||------0---------------0---------------0----------------------------|
C||--------7---------------7---------------7-------------5-----0~-----|
G||----------5---------------5---------------5-------------5---4b5~---|
C||--0---------0-0-0-0---------0-0-0-4---------4-4-4-5-------5--------|





*****************************
-Tablature Legend-

 h   hammer-on
 p   pull-off
 b   bend
 pb  pre-bend
 r   release bend
 ~   hold / vibrato
 .   palm mute
 /   slide up
 \   slide down
 *   pinch harmonic
 '   natural harmonic
 x   mute note
 T   tap

*****************************
Suggest correction
Give kudos to tab author, rate the tab!
1 2 3 4 5
comments
print report bad tab
guest
You may want to rate the tab now too:
select rating
Wanna post a correction for this tab? Suggest correction