Oops, an error
Loading. Please wait.

Rough Landing Holly tab

version 1
version 1

Whole song

Interactive

7,809 views 3 this week
2 commentsread comments
1 2 3 4 5
2 more votes to show rating
add to favorites
×
Save as Personal and add changes to this tab that will be seen only by you. Learn more ›
×
You can save this tab as Personal to edit and correct it or add notes. All changes will be seen only by you. Learn more »
launch autoscroll
font size
0
reset
how to read this tab
guitar tuner
edit
Autoscroll
slow
fast
+/-
esc
set tempo
stop
Author
Song: Rough Landing, Holly
Band: Yellowcard
Album: Lights And Sounds

Gtr1: drop D
Gtr2: standard tuning

Gtr1
_____________________________________________________________________
Intro:

e---------------------------------------------------------------------|x2
B---------------------------------------------------------------------|
G---------------------4/66666-----------------4/66666-----------------|
D-222222222222222222--x-xxxxx-----------------x/xxxxx-----------------|
A-222222222222222222--2/44444-----------------2/44444-----------------|
D-222222222222222222----------6-6-6-6-2-2-2-2---------6-6-6-6-2-2-2-2-|

Verse 1:
e-------------------------------------------------------------------------|
B-------------------------------------------------------------------------|
G-------------------------------------------------------------------------|
D-------------------------------------------------------------------------|
A-22-222-222-222-222-222-222-2222222-44-444-444-4442244-444-444-444-444-2-|
D-22-222-222-222-222-222-222-2222222--------------------------------------|

e--------------------------------------------------------------------|
B--------------------------------------------------------------------|
G--------------------------------------------------------------------|
D--------------------------------------------------------------------|
A-22-222-222-222-222-222-222-2222222-4-4-4-4\3/4\3/4\3/4-4-4-4-4-4-4-|
D-22-222-222-222-222-222-222-2222222---------------------------------|

Pre-Chorus:

e-----|
B-----|
G-----|
D--7--|
A--7--|
D--7--|let ring

Chorus 1:
e---------------------------------------|x2
B---------------------------------------|
G---------------------6666666666666666--|
D--222222222222222222-6666666666666666--|
A--222222222222222222-4444444444444444--|
D--222222222222222222-------------------|


e-----------------------------------|
B-----------------------------------|
G-----------------------------------|
D--77777777777777--444444444444444--|
A--77777777777777--444444444444444--|
D--77777777777777--444444444444444--|

Break: same as intro (but played once)

Verse 2: same as verse 1

Chorus 2: same as chorus 1

Solo: start playing after gtr2 has played 2 of the 4 initial riffs 
      (listen to the song) 
       
e------------------------------------|x2
B------------------------------------|
G------------------------------------|
D-2222222222222222--7777777777777777-|
A-2222222222222222--7777777777777777-|
D-2222222222222222--7777777777777777-|

Final chorus: start playing from the 2nd part of the previous chorus
              then repeat it from the beginning

Outro: same as intro

End on E5
_______________________________________________________________________
Gtr2

Intro: same as gtr1

Verse 1: at the 2nd part of the verse play this (listen to the song)

e-----------------------------------------|
B-----------------------------------------|
G-----------------------------------------|
D-----------------------------------------|
A--4\3/4\3/4\3/4\3/4\3/4\3/4\3 and so on--|
E-----------------------------------------|

Pre-Chorus:

e-----|
B-----|
G--2--|
D--2--|
A--0--|
E-----|let ring

Chorus 1:

e---------------------------------------|x2
B---------------------------------------|
G--999999999999999999-6666666666666666--|
D--999999999999999999-6666666666666666--|
A--777777777777777777-4444444444444444--|
E---------------------------------------|


e-----------------------------------|
B-----------------------------------|
G-----------------------------------|
D--77777777777777--444444444444444--|
A--77777777777777--444444444444444--|
E--55555555555555--222222222222222--|


Break: same as intro (but played once)

Verse 2: same as verse 1

Chorus 2: same as chorus 1

solo:

e---------------------------------|x4
B---------------------------------|
G---------------------------------|
D---------------------------------|
A---------------------------------|
E-00-12-00-16-00-14-00-17-0-14h16-| 00-->pick the E string twice very fast
                                         the other numbers refer to the 
                                         relative fret

e---------------------------------------------------------|
B---------------------------------------------------------|
G---------------------------------------------------------|
D---------------------------------------------------------|
A-00-6-00-9-00-7-00-11-0-9h11---00-6-00-4-00-7-00-6-0-6h7-|
E---------------------------------------------------------|

e--------------------------------------------------------------------|
B--------------------------------------------------------------------|
G--------------------------------------------------------------------|
D--------------------------------------------------------------------|
A--------------------------------------------------------------------|
E-00-14-00-16-00-14-00-17-00-17h19--00-14-00-16-00-14-00-17-00-17h19-|

e---------------------------------------------------------|
B---------------------------------------------------------|
G---------------------------------------------------------|
D---------------------------------------------------------|
A-00-6-00-9-00-7-00-11-0-9h11---00-6-00-4-00-7-00-6-0-6h7-|
E---------------------------------------------------------|

Final Chorus

e---------------------------------------|
B---------------------------------------|
G--999999999999999999-6666666666666666--|
D--xxxxxxxxxxxxxxxxxx-xxxxxxxxxxxxxxxx--|
A--777777777777777777-4444444444444444--|
E---------------------------------------|


e-----------------------------------|
B-----------------------------------|
G-----------------------------------|
D--77777777777777--444444444444444--|
A--77777777777777--444444444444444--|
E--55555555555555--222222222222222--|

then repeat the whole chorus

Outro: same as intro

End on E5

Hope it's right
Suggest correction
Creating personal tab
Creating personal tab
You can edit any tab online and save it as your Personal.

You can edit, replace or remove any tab part or add personal notes – all changes will be seen only by you.

Personal tabs can be accessed anytime from any device, even offline.
Learn more »
Give kudos to tab author, rate the tab!
1 2 3 4 5
comments
print report bad tab
2 comments total.
0 reply
z3r0element07 602 Feb 11, 2006 04:05 PM

First of all, you spelled Landing wrong... Nice tab, I would rate, but I don't have my guitar with me.

0 reply
Shiruzu 1,537 Feb 13, 2006 09:41 AM

wops...i'll fix it in a sec

guest
You may want to rate the tab now too:
select rating
Wanna post a correction for this tab? Suggest correction