Oops, an error
Loading. Please wait.

Takedown bass

version 1
version 1

Whole song

Interactive

1,954 views 1 this week
1 commentread comment
1 2 3 4 5
2 more votes to show rating
add to favorites
×
Save as Personal and add changes to this tab that will be seen only by you. Learn more ›
×
You can save this tab as Personal to edit and correct it or add notes. All changes will be seen only by you. Learn more »
launch autoscroll
font size
0
reset
guitar tuner
edit
Autoscroll
slow
fast
+/-
esc
set tempo
stop
"TAKEDOWN"
-YELLOWCARD

*bass tab
*Drop D

============================================================================

PAUSE

Intro:
G|--------|
D|--------|
A|--------|
D|---0~---|

G|-------------------------------------------------------|
D|-------------------------------------------------------|
A|-------------------------------------------------------|
D|-4-4--4--4-4---4-5-5--5--5--5--5--0-0-0-0-0-0-0-0--0---| x4

G|--------------------------------------|
D|--------------------------------------|
A|---------------------------------5~---|
D|-4-4--4--4-4---4-5-5--5--5--5--5------|

Verse: "I feel things changing when i move.."
G|------------------------------------------------------------------|
D|------------------------------------------------------------------|
A|----------------------------------5-5-5-5-5-5-5-5-5-5-5-5-5-5-5-5-|
D|-4-4--4--4-4---4-5-5--5--5--5--5----------------------------------| x3

PAUSE

Chorus: "Don't turn your back on my now..."
G|--------------------------------------------------------------------|
D|--------------------------------------------------------------------|
A|--------------------------------------------------------------------|
D|-4-4--4--4-4---4-5-5--5--5--5--5---0-0-0-0-0-0-0-0-0-0-0-0-0-0-0-0--| x4

Verse 2:
G|------------------------------------------------------------------|
D|------------------------------------------------------------------|
A|----------------------------------5-5-5-5-5-5-5-5-5-5-5-5-5-5-5-5-|
D|-4-4--4--4-4---4-5-5--5--5--5--5----------------------------------| x3

PAUSE

-CHORUS-

Bridge:
G|-------------------------------------------------|
D|-------------------------------------------------|
A|-2---------------2-------------------------------|
D|----4---5---0--------4---5---0---2---4---5---7---|

Solo:
G|-----------------------------|
D|-----------------------------|
A|-222222----------------------|
D|--------444444-55555--000000-| x2

G|---------------------------------------------------|
D|---------------------------------------------------|
A|-----------------------------------------------5~--|
D|-00000000-22222222-44444444-5555555-777777777------|


Bridge 2: "I won't get by, i won't heal in time..."

DON'T PLAY

-CHORUS-

Outo:
G|---------------------------------------------------------------------|
D|---------------------------------------------------------------------|
A|----------------------------------5-5-5-5-5-5-5-5-5-5-5-5-5-5-5-5(~)-|
D|-4-4--4--4-4---4-5-5--5--5--5--5-------------------------------------| x2





Suggest correction
Creating personal tab
Creating personal tab
You can edit any tab online and save it as your Personal.

You can edit, replace or remove any tab part or add personal notes – all changes will be seen only by you.

Personal tabs can be accessed anytime from any device, even offline.
Learn more »
Give kudos to tab author, rate the tab!
1 2 3 4 5
comments
print report bad tab
1 comment total.
0 reply
Theaceof8S 12 Feb 28, 2017 05:07 PM, edited at 10:07 pm

Drop D is both an ally and a nemesis of mine. Gotta de-tune, then re-tune my Bass :P Love the tab! *****

guest
You may want to rate the tab now too:
select rating
Wanna post a correction for this tab? Suggest correction