Oops, an error
Loading. Please wait.

The Hurt Is Gone Tab

451 views 42 this week
no commentswrite comment
1 2 3 4 5
3 more votes to show rating
add to favorites
launch autoscroll
font size
0
reset
how to read this tab
guitar tuner
Autoscroll
slow
fast
+/-
esc
set tempo
stop
Help us to improve Ultimate-Guitar.com Take our survey!
×
Author
Difficulty
Tuning
intermediate
C G C F A D
Tabbed by: Joshua Garcia (joshuag523@aol.com)

Tabs for the song: The Hurt Is Gone by Yellowcard
Please rate and let me know if you have any corrections. Thank you.


Tuning: Drop C (C G C F A D)


[Intro]
Guitar 1:
D||------------------------------------------|------------------------------------------|
A||------------------------------------------|------------------------------------------|
F||--13---13---13---13---13/14-14~---6/9-9~--|--13---13---13---13---13/14-14~---6/9-9~--|
C||--x----x----x----x----x-/x--x-----x/x-x---|--x----x----x----x----x-/x--x-----x/x-x---|
G||--11---11---11---11---11/12-12~---4/7-7~--|--11---11---11---11---11/12-12~---4/7-7~--|
C||------------------------------------------|------------------------------------------|


D||------------------------------------------|--------------------------------------------|
A||------------------------------------------|--------------------------------------------|
F||--13---13---13---13---13/14-14~---6/9-9~--|--13---13---13---13---13/14-14~--------13~--|
C||--x----x----x----x----x-/x--x-----x/x-x---|--x----x----x----x----x-/x--x-----9/11-x----| x2
G||--11---11---11---11---11/12-12~---4/7-7~--|--11---11---11---11---11/12-12~---x/11-11~--|
C||------------------------------------------|----------------------------------9/11------|


Guitar 2:
D||-------------------------------------------------------------------|
A||-------------------------------------------------------------------|
F||-------------------------------------------------------------------|
C||--9-9-9-9-9-9-9-9-9-9-9-9-9-9-9-9-9-9-9-9-9-9-9-9-9-9-9-9-9-9-9-9--|
G||--7-7-7-7-7-7-7-7-7-7-7-7-7-7-7-7-7-7-7-7-7-7-7-7-7-7-7-7-7-7-7-7--|
C||--7-7-7-7-7-7-7-7-7-7-7-7-7-7-7-7-7-7-7-7-7-7-7-7-7-7-7-7-7-7-7-7--|


D||-------------------------------------------------------------------|
A||-------------------------------------------------------------------|
F||-------------------------------------------------------------------|
C||--6-6-6-6-6-6-6-6-6-6-6-6-6-6-6-6-6-6-6-6-6-6-6-6-6-6-6-6-6-6-6-6--| x2
G||--4-4-4-4-4-4-4-4-4-4-4-4-4-4-4-4-4-4-4-4-4-4-4-4-4-4-4-4-4-4-4-4--|
C||--4-4-4-4-4-4-4-4-4-4-4-4-4-4-4-4-4-4-4-4-4-4-4-4-4-4-4-4-4-4-4-4--|



[Verse]
Guitar 1/4:
D||-------------------------------------------------------------------|
A||-------------------------------------------------------------------|
F||-------------------------------------------------------------------|
C||--9-9-9-9-9-9-9-9-9-9-9-9-9-9-9-9-9-9-9-9-9-9-9-9-9-9-9-9-9-2-2-2--|
G||--7-7-7-7-7-7-7-7-7-7-7-7-7-7-7-7-7-7-7-7-7-7-7-7-7-7-7-7-7-2-2-2--|
C||--7-7-7-7-7-7-7-7-7-7-7-7-7-7-7-7-7-7-7-7-7-7-7-7-7-7-7-7-7-2-2-2--|


D||-------------------------------------------------------------------|
A||-------------------------------------------------------------------|
F||-------------------------------------------------------------------|
C||--6-6-6-6-6-6-6-6-6-6-6-6-6-6-6-6-6-6-6-6-6-6-6-6-6-6-6-6-6-6-6-6--| x2
G||--4-4-4-4-4-4-4-4-4-4-4-4-4-4-4-4-4-4-4-4-4-4-4-4-4-4-4-4-4-4-4-4--|
C||--4-4-4-4-4-4-4-4-4-4-4-4-4-4-4-4-4-4-4-4-4-4-4-4-4-4-4-4-4-4-4-4--|



[Pre-Chorus]
Guitar 1 (Left):
D||-------------------------------------------------|-----------------------------------------|
A||-------------------------------------------------|-----------------------------------------|
F||--13b~----13-13-13----11---11-11-11-11-11-11-11--|--13b~----13-13-13----9---9-9-9-9-9-9-9--|
C||--x-------x--x--x-----x----x--x--x--x--x--x--x---|--x-------x--x--x-----x---x-x-x-x-x-x-x--|
G||--11b~----11-11-11----9----9--9--9--9--9--9--9---|--11b~----11-11-11----7---7-7-7-7-7-7-7--|
C||--0~------0--0--0-----0----0--0--0--0--0--0--0---|--0~------0--0--0-----0---0-0-0-0-0-0-0--|


Guitar 2 (Right):
D||-------------------------------------------------|---------------------------------------------|
A||-------------------------------------------------|---------------------------------------------|
F||--13b~----13-13-13----11---11-11-11-11-11-11-11--|--9b~----9-9-9----14---14-14-14-14-14-14-14--|
C||--x-------x--x--x-----x----x--x--x--x--x--x--x---|--x------x-x-x----x----x--x--x--x--x--x--x---|
G||--11b~----11-11-11----9----9--9--9--9--9--9--9---|--7b~----7-7-7----12---12-12-12-12-12-12-12--|
C||--0~------0--0--0-----0----0--0--0--0--0--0--0---|--0~-----0-0-0----0----0--0--0--0--0--0--0---|



[Chorus]
Guitar 1/2:
D||------------------------------------------------------------------------------------|
A||------------------------------------------------------------------------------------|
F||------------------------------------------------------------------------------------|
C||--6-6-6-6-6-6-6-6----7-7-7-7-7-7-7-11-11-11-11-11-11-11-11----14-14-14-14-14-14-14--| x2
G||--4-4-4-4-4-4-4-4----4-4-4-4-4-4-4-7--7--7--7--7--7--7--7-----12-12-12-12-12-12-12--|
C||--4-4-4-4-4-4-4-4----4-4-4-4-4-4-4-7--7--7--7--7--7--7--7-----12-12-12-12-12-12-12--|



[Pre-Verse]
Guitar 1:
D||------------------------------------------|------------------------------------------|
A||------------------------------------------|------------------------------------------|
F||--13---13---13---13---13/14-14~---6/9-9~--|--13---13---13---13---13/14-14~---6/9-9~--|
C||--x----x----x----x----x-/x--x-----x/x-x---|--x----x----x----x----x-/x--x-----x/x-x---|
G||--11---11---11---11---11/12-12~---4/7-7~--|--11---11---11---11---11/12-12~---4/7-7~--|
C||------------------------------------------|------------------------------------------|


D||------------------------------------------|--------------------------------------------|
A||------------------------------------------|--------------------------------------------|
F||--13---13---13---13---13/14-14~---6/9-9~--|--13---13---13---13---13/14-14~--------13~--|
C||--x----x----x----x----x-/x--x-----x/x-x---|--x----x----x----x----x-/x--x-----9/11-x----|
G||--11---11---11---11---11/12-12~---4/7-7~--|--11---11---11---11---11/12-12~---x/11-11~--|
C||------------------------------------------|----------------------------------9/11------|


Guitar 2:
D||-------------------------------------------------------------------|
A||-------------------------------------------------------------------|
F||-------------------------------------------------------------------|
C||--9-9-9-9-9-9-9-9-9-9-9-9-9-9-9-9-9-9-9-9-9-9-9-9-9-9-9-9-9-9-9-9--|
G||--7-7-7-7-7-7-7-7-7-7-7-7-7-7-7-7-7-7-7-7-7-7-7-7-7-7-7-7-7-7-7-7--|
C||--7-7-7-7-7-7-7-7-7-7-7-7-7-7-7-7-7-7-7-7-7-7-7-7-7-7-7-7-7-7-7-7--|


D||-------------------------------------------------------------------|
A||-------------------------------------------------------------------|
F||-------------------------------------------------------------------|
C||--6-6-6-6-6-6-6-6-6-6-6-6-6-6-6-6-6-6-6-6-6-6-6-6-6-6-6-6-6-6-6-6--|
G||--4-4-4-4-4-4-4-4-4-4-4-4-4-4-4-4-4-4-4-4-4-4-4-4-4-4-4-4-4-4-4-4--|
C||--4-4-4-4-4-4-4-4-4-4-4-4-4-4-4-4-4-4-4-4-4-4-4-4-4-4-4-4-4-4-4-4--|



[Verse]
Guitar 1/4:
D||-------------------------------------------------------------------|
A||-------------------------------------------------------------------|
F||-------------------------------------------------------------------|
C||--9-9-9-9-9-9-9-9-9-9-9-9-9-9-9-9-9-9-9-9-9-9-9-9-9-9-9-9-9-2-2-2--|
G||--7-7-7-7-7-7-7-7-7-7-7-7-7-7-7-7-7-7-7-7-7-7-7-7-7-7-7-7-7-2-2-2--|
C||--7-7-7-7-7-7-7-7-7-7-7-7-7-7-7-7-7-7-7-7-7-7-7-7-7-7-7-7-7-2-2-2--|


D||-------------------------------------------------------------------|
A||-------------------------------------------------------------------|
F||-------------------------------------------------------------------|
C||--6-6-6-6-6-6-6-6-6-6-6-6-6-6-6-6-6-6-6-6-6-6-6-6-6-6-6-6-6-6-6-6--| x2
G||--4-4-4-4-4-4-4-4-4-4-4-4-4-4-4-4-4-4-4-4-4-4-4-4-4-4-4-4-4-4-4-4--|
C||--4-4-4-4-4-4-4-4-4-4-4-4-4-4-4-4-4-4-4-4-4-4-4-4-4-4-4-4-4-4-4-4--|



[Pre-Chorus]
Guitar 1 (Left):
D||-------------------------------------------------|-----------------------------------------|
A||-------------------------------------------------|-----------------------------------------|
F||--13b~----13-13-13----11---11-11-11-11-11-11-11--|--13b~----13-13-13----9---9-9-9-9-9-9-9--|
C||--x-------x--x--x-----x----x--x--x--x--x--x--x---|--x-------x--x--x-----x---x-x-x-x-x-x-x--|
G||--11b~----11-11-11----9----9--9--9--9--9--9--9---|--11b~----11-11-11----7---7-7-7-7-7-7-7--|
C||--0~------0--0--0-----0----0--0--0--0--0--0--0---|--0~------0--0--0-----0---0-0-0-0-0-0-0--|


Guitar 2 (Right):
D||-------------------------------------------------|---------------------------------------------|
A||-------------------------------------------------|---------------------------------------------|
F||--13b~----13-13-13----11---11-11-11-11-11-11-11--|--9b~----9-9-9----14---14-14-14-14-14-14-14--|
C||--x-------x--x--x-----x----x--x--x--x--x--x--x---|--x------x-x-x----x----x--x--x--x--x--x--x---|
G||--11b~----11-11-11----9----9--9--9--9--9--9--9---|--7b~----7-7-7----12---12-12-12-12-12-12-12--|
C||--0~------0--0--0-----0----0--0--0--0--0--0--0---|--0~-----0-0-0----0----0--0--0--0--0--0--0---|



[Chorus]
Guitar 1/2:
D||------------------------------------------------------------------------------------|
A||------------------------------------------------------------------------------------|
F||------------------------------------------------------------------------------------|
C||--6-6-6-6-6-6-6-6----7-7-7-7-7-7-7-11-11-11-11-11-11-11-11----14-14-14-14-14-14-14--| x4
G||--4-4-4-4-4-4-4-4----4-4-4-4-4-4-4-7--7--7--7--7--7--7--7-----12-12-12-12-12-12-12--|
C||--4-4-4-4-4-4-4-4----4-4-4-4-4-4-4-7--7--7--7--7--7--7--7-----12-12-12-12-12-12-12--|



[Bridge]
Guitar 1:
D||---------------------------|---------------------------|
A||---------------------------|---------------------------|
F||--11-11-----13-13-----14~--|--11-11-----13-13-----14~--|
C||--x--x------x--x------x----|--x--x------x--x------x----|
G||--9--9------11-11-----12~--|--9--9------11-11-----12~--|
C||---------------------------|---------------------------|


D||----------------------------------------------|-------------------------------------------------|
A||----------------------------------------------|-------------------------------------------------|
F||--11~-----13~-----14~----14-14~----14~---14~--|--13-14-14-13-13~-----9~-----11~-----18---18-13--|
C||--x-------x-------x------x--x------x-----x----|--x--x--x--x--x-------x------x-------x----x--x---|
G||--9~------11~-----12~----12-12~----12~---12~--|--11-12-12-11-11~-----7~-----9~------16---16-11--|
C||----------------------------------------------|-------------------------------------------------|


D||-----------------------------------------------|-----------------------------------------------|
A||-----------------------------------------------|-----------------------------------------------|
F||--11~-----13~-----14~----14-14~----14~---14-9--|--11~-----13~-----14~----14-14~----14~---14-9--|
C||--x-------x-------x------x--x------x-----x--x--|--x-------x-------x------x--x------x-----x--x--|
G||--9~------11~-----12~----12-12~----12~---12-7--|--9~------11~-----12~----12-12~----12~---12-7--|
C||-----------------------------------------------|-----------------------------------------------|


D||----------------------------------------------|-------------------------------------------------|
A||----------------------------------------------|-------------------------------------------------|
F||--11~-----13~-----14~----14-14~----14~---14~--|--13-14-14-13-13~-----9~-----11~-----18---18-18--|
C||--x-------x-------x------x--x------x-----x----|--x--x--x--x--x-------x------x-------x----x--x---|
G||--9~------11~-----12~----12-12~----12~---12~--|--11-12-12-11-11~-----7~-----9~------16---16-16--|
C||----------------------------------------------|-------------------------------------------------|


D||---------------------------------------------|
A||---------------------------------------------|
F||--13-14-14-13-13~------9~------11~------18~--|
C||--x--x--x--x--x--------x-------x--------x----|
G||--11-12-12-11-11~------7~------9~-------16~--|
C||---------------------------------------------|


Guitar 2:
D||----------------------|----------------------|
A||----------------------|----------------------|
F||--6-6-----4-4-----2~--|--6-6-----9-9-----2~--|
C||--4-4-----2-2-----0~--|--4-4-----7-7-----0~--|
G||--4-4-----2-2-----0~--|--4-4-----7-7-----0~--|
C||--4-4-----2-2-----0~--|--4-4-----7-7-----0~--|


D||---------------------------------------|----------------------------------------|
A||---------------------------------------|----------------------------------------|
F||--6~-----4~-----2~----2-2~----2~---2~--|--4-4-4-4-4~-----2~-----2~-----2---2-2--|
C||--4~-----2~-----0~----0-0~----0~---0~--|--2-2-2-2-2~-----0~-----0~-----0---0-0--|
G||--4~-----2~-----0~----0-0~----0~---0~--|--2-2-2-2-2~-----0~-----0~-----0---0-0--|
C||--4~-----2~-----0~----0-0~----0~---0~--|--2-2-2-2-2~-----0~-----0~-----0---0-0--|


D||---------------------------------------|---------------------------------------|
A||---------------------------------------|---------------------------------------|
F||--6~-----4~-----2~----2-2~----2~---2~--|--6~-----9~-----2~----2-2~----2~---2~--|
C||--4~-----2~-----0~----0-0~----0~---0~--|--4~-----7~-----0~----0-0~----0~---0~--|
G||--4~-----2~-----0~----0-0~----0~---0~--|--4~-----7~-----0~----0-0~----0~---0~--|
C||--4~-----2~-----0~----0-0~----0~---0~--|--4~-----7~-----0~----0-0~----0~---0~--|


D||---------------------------------------|----------------------------------------|
A||---------------------------------------|----------------------------------------|
F||--6~-----4~-----2~----2-2~----2~---2~--|--4-4-4-4-4~-----2~-----2~-----2---2-2--|
C||--4~-----2~-----0~----0-0~----0~---0~--|--2-2-2-2-2~-----0~-----0~-----0---0-0--|
G||--4~-----2~-----0~----0-0~----0~---0~--|--2-2-2-2-2~-----0~-----0~-----0---0-0--|
C||--4~-----2~-----0~----0-0~----0~---0~--|--2-2-2-2-2~-----0~-----0~-----0---0-0--|

D||--------------------------------------|
A||--------------------------------------|
F||--4-4-4-4-4~------2~------2~------2~--|
C||--2-2-2-2-2~------0~------0~------0~--|
G||--2-2-2-2-2~------0~------0~------0~--|
C||--2-2-2-2-2~------0~------0~------0~--|



[Chorus]
Guitar 1/2:
D||------------------------------------------------------------------------------------|
A||------------------------------------------------------------------------------------|
F||------------------------------------------------------------------------------------|
C||--6-6-6-6-6-6-6-6----7-7-7-7-7-7-7-11-11-11-11-11-11-11-11----14-14-14-14-14-14-14--| x4
G||--4-4-4-4-4-4-4-4----4-4-4-4-4-4-4-7--7--7--7--7--7--7--7-----12-12-12-12-12-12-12--|
C||--4-4-4-4-4-4-4-4----4-4-4-4-4-4-4-7--7--7--7--7--7--7--7-----12-12-12-12-12-12-12--|



[Outro]
Guitar 1 (Left):
D||-------------------------------------------------|-----------------------------------------|
A||-------------------------------------------------|-----------------------------------------|
F||--13b~----13-13-13----11---11-11-11-11-11-11-11--|--13b~----13-13-13----9---9-9-9-9-9-9-9--|
C||--x-------x--x--x-----x----x--x--x--x--x--x--x---|--x-------x--x--x-----x---x-x-x-x-x-x-x--| x2
G||--11b~----11-11-11----9----9--9--9--9--9--9--9---|--11b~----11-11-11----7---7-7-7-7-7-7-7--|
C||--0~------0--0--0-----0----0--0--0--0--0--0--0---|--0~------0--0--0-----0---0-0-0-0-0-0-0--|


Guitar 2 (Right):
D||-------------------------------------------------|---------------------------------------------|
A||-------------------------------------------------|---------------------------------------------|
F||--13b~----13-13-13----11---11-11-11-11-11-11-11--|--9b~----9-9-9----14---14-14-14-14-14-14-14--|
C||--x-------x--x--x-----x----x--x--x--x--x--x--x---|--x------x-x-x----x----x--x--x--x--x--x--x---| x2
G||--11b~----11-11-11----9----9--9--9--9--9--9--9---|--7b~----7-7-7----12---12-12-12-12-12-12-12--|
C||--0~------0--0--0-----0----0--0--0--0--0--0--0---|--0~-----0-0-0----0----0--0--0--0--0--0--0---|



Guitar 1 (Left):
D||-------------------------------------------------|-----------------------------------------|
A||-------------------------------------------------|-----------------------------------------|
F||--13b~----13-13-13----11---11-11-11-11-11-11-11--|--13b~----13-13-13----9---9-9-9-9-9-9-9--|
C||--x-------x--x--x-----x----x--x--x--x--x--x--x---|--x-------x--x--x-----x---x-x-x-x-x-x-x--|
G||--11b~----11-11-11----9----9--9--9--9--9--9--9---|--11b~----11-11-11----7---7-7-7-7-7-7-7--|
C||--0~------0--0--0-----0----0--0--0--0--0--0--0---|--0~------0--0--0-----0---0-0-0-0-0-0-0--|


D||-------------------------------------------------|-----------------------------------------------------|
A||-------------------------------------------------|-----------------------------------------------------|
F||--13b~----13-13-13----11---11-11-11-11-11-11-11--|--13-14-14-13-13~-----9~-----11~-----18-18-18-18-18--|
C||--x-------x--x--x-----x----x--x--x--x--x--x--x---|--x--x--x--x--x-------x------x-------x--x--x--x--x---| x7
G||--11b~----11-11-11----9----9--9--9--9--9--9--9---|--11-12-12-11-11~-----7~-----9~------16-16-16-16-16--|
C||--0~------0--0--0-----0----0--0--0--0--0--0--0---|--0--0--0--0--0~------0~-----0~------0--0--0--0--0---|


D||-------------------------------------------------|-----------------------------------------|
A||-------------------------------------------------|-----------------------------------------|
F||--13b~----13-13-13----11---11-11-11-11-11-11-11--|--13b~----13-13-13----9---9-9-9-9-9-9-9--|
C||--x-------x--x--x-----x----x--x--x--x--x--x--x---|--x-------x--x--x-----x---x-x-x-x-x-x-x--|
G||--11b~----11-11-11----9----9--9--9--9--9--9--9---|--11b~----11-11-11----7---7-7-7-7-7-7-7--|
C||--0~------0--0--0-----0----0--0--0--0--0--0--0---|--0~------0--0--0-----0---0-0-0-0-0-0-0--|


D||--------------------------------------------------|--------------------------------------------|
A||--------------------------------------------------|--------------------------------------------|
F||--13b~----13-13-13-----11---11-11-11-11-11-11-11--|--13-14-14-13-13~------9~------11~-----18~--|
C||--x-------x--x--x------x----x--x--x--x--x--x--x---|--x--x--x--x--x--------x-------x-------x----|
G||--11b~----11-11-11-----9----9--9--9--9--9--9--9---|--11-12-12-11-11~------7~------9~------16~--|
C||--0~------0--0--0------0----0--0--0--0--0--0--0---|--0--0--0--0--0~-------0~------0~------0~---|


Guitar 2 (Right):
D||-------------------------------------------------|---------------------------------------------|
A||-------------------------------------------------|---------------------------------------------|
F||--13b~----13-13-13----11---11-11-11-11-11-11-11--|--9b~----9-9-9----14---14-14-14-14-14-14-14--|
C||--x-------x--x--x-----x----x--x--x--x--x--x--x---|--x------x-x-x----x----x--x--x--x--x--x--x---|
G||--11b~----11-11-11----9----9--9--9--9--9--9--9---|--7b~----7-7-7----12---12-12-12-12-12-12-12--|
C||--0~------0--0--0-----0----0--0--0--0--0--0--0---|--0~-----0-0-0----0----0--0--0--0--0--0--0---|


D||-------------------------------------------------|-----------------------------------------------------|
A||-------------------------------------------------|-----------------------------------------------------|
F||--13b~----13-13-13----11---11-11-11-11-11-11-11--|--13-14-14-13-13~-----9~-----11~-----18-18-18-18-18--|
C||--x-------x--x--x-----x----x--x--x--x--x--x--x---|--x--x--x--x--x-------x------x-------x--x--x--x--x---| x7
G||--11b~----11-11-11----9----9--9--9--9--9--9--9---|--11-12-12-11-11~-----7~-----9~------16-16-16-16-16--|
C||--0~------0--0--0-----0----0--0--0--0--0--0--0---|--0--0--0--0--0~------0~-----0~------0--0--0--0--0---|


D||-------------------------------------------------|---------------------------------------------|
A||-------------------------------------------------|---------------------------------------------|
F||--13b~----13-13-13----11---11-11-11-11-11-11-11--|--9b~----9-9-9----14---14-14-14-14-14-14-14--|
C||--x-------x--x--x-----x----x--x--x--x--x--x--x---|--x------x-x-x----x----x--x--x--x--x--x--x---|
G||--11b~----11-11-11----9----9--9--9--9--9--9--9---|--7b~----7-7-7----12---12-12-12-12-12-12-12--|
C||--0~------0--0--0-----0----0--0--0--0--0--0--0---|--0~-----0-0-0----0----0--0--0--0--0--0--0---|


D||-------------------------------------------------|---------------------------------------------|
A||-------------------------------------------------|---------------------------------------------|
F||--13b~----13-13-13----11---11-11-11-11-11-11-11--|--13-14-14-13-13~------9~------11~------18~--|
C||--x-------x--x--x-----x----x--x--x--x--x--x--x---|--x--x--x--x--x--------x-------x--------x----|
G||--11b~----11-11-11----9----9--9--9--9--9--9--9---|--11-12-12-11-11~------7~------9~-------16~--|
C||--0~------0--0--0-----0----0--0--0--0--0--0--0---|--0--0--0--0--0~-------0~------0~-------0~---|





*****************************
-Tablature Legend-

 h   hammer-on
 p   pull-off
 b   bend
 pb  pre-bend
 r   release bend
 ~   hold / vibrato
 .   palm mute
 /   slide up
 \   slide down
 *   pinch harmonic
 '   natural harmonic
 x   mute note
 T   tap

*****************************
Suggest correction
Give kudos to tab author, rate the tab!
1 2 3 4 5
comments
print report bad tab
guest
You may want to rate the tab now too:
select rating
Wanna post a correction for this tab? Suggest correction