Oops, an error
Loading. Please wait.

Three Flights Up tab

version 2
version 2

Whole song

Interactive

2,215 views 3 this week
4 commentsread comments
1 2 3 4 5
x 3
add to favorites
×
Save as Personal and add changes to this tab that will be seen only by you. Learn more ›
×
You can save this tab as Personal to edit and correct it or add notes. All changes will be seen only by you. Learn more »
launch autoscroll
font size
0
reset
how to read this tab
guitar tuner
edit
Autoscroll
slow
fast
+/-
esc
set tempo
stop
Author
Difficulty
Artist/Band:         Yellowcard
Album:               Lights and Sounds
Song:                Three Flights Up
Tabbed By:           Jose Jankunas (jankunas_rock@yahoo.com)
                                   (jankunas_rock@hotmail.com)


NOTE: originally in piano, but here’s a way I invented to play it in guitar (it was hard 
me to play at first =)

e|--2-2-2-230-0-0-02-------02-2-2-230-0-0-02-------0-|
B|---3-3-3---3-3-3--3-3-3-3--3-3-3---3-3-3--3-3-3-3--|
G|-------------------4-4-4-------------------4-4-4---|
D|--------------------------0---0---0---0---0---0----|
A|---------------------------------------------------|
E|---------------------------------------------------|

e|--2-2-2-230-0-0-02--------|
B|---3-3-3---3-3-3--3-3-3-3-|
G|-------------------4-4-4--|
D|--0---0---0---0---0---0---|
A|--------------------------|
E|--------------------------|

e|--2-2-2-230-0-0-02--------|
B|---3-3-3---3-3-3--3-3-3-3-|
G|-------------------4-4-4--|
D|--------------------------|
A|--2---2---0---0-----------|
E|------------------3---3---|

e|--2-2-2-230-0-0-02--------|
B|---3-3-3---3-3-3--3-3-3-3-|
G|-------------------4-4-4--|
D|--------------------------|
A|--0---4-5-2---2---0---0---|
E|--------------------------|

e|--2-2-2-230-0-0-02--------|
B|---3-3-3---3-3-3--3-3-3-3-|
G|-------------------4-4-4--|
D|------------------0-0-0-0-|
A|--------------------------|
E|--3-3-3-3-2-2-2-2---------|

e|--2-2-2-230-0-0-02--------|
B|---3-3-3---3-3-3--3-3-3-3-|
G|-------------------4-4-4--|
D|--0---0---0---0---0---0---|
A|--------------------------|
E|--------------------------|

e|--2-2-2-230-0-0-02-----------3--|
B|---3-3-3---3-3-3--3-3-3-32-L-3--|
G|-------------------4-4-4-----2--|
D|--0---0---0---0---0---0------0--|
A|-----------------------------0--|
E|--------------------------------|

(L means: let ring)

            
            
Suggest correction
Creating personal tab
Creating personal tab
You can edit any tab online and save it as your Personal.

You can edit, replace or remove any tab part or add personal notes – all changes will be seen only by you.

Personal tabs can be accessed anytime from any device, even offline.
Learn more »
Give kudos to tab author, rate the tab!
1 2 3 4 5
comments
print report bad tab
4 comments total. Showing first comments.
0 reply
the_black 10 Jul 19, 2006 10:57 AM

Awsome acoustic you did there brother ;-) !

0 reply
z3r0element07 602 Jul 20, 2006 06:25 AM

It's an octave lower then it's suppose to be but it still sounds cool.

0 reply
GeekInThePink 184 Sep 30, 2006 12:17 PM

Really good piano part but where's the string part?

guest
You may want to rate the tab now too:
select rating
Wanna post a correction for this tab? Suggest correction