Oops, an error
Loading. Please wait.

Way Away Bass Tab

version 2
version 2
5,941 views 6 this week
2 commentsread comments
1 2 3 4 5
x 20
add to favorites
launch autoscroll
font size
0
reset
guitar tuner
×
Best way to learn
"Way Away"
Autoscroll
slow
fast
+/-
esc
set tempo
stop
Author
I'v seen the other tab for this song and the E is tuned to a C, well
i think its a hell of alot easier like this without tuning to a C, Try this out.

Intro (Guitar)

Prelude

G--------------------------------------------------------------------------
D--------------------33-3-3-3-3-3-3-333------------------33-3-3-3-3-3-3-333
A-55-5-5-5-5-5-5-555-------------------55-5-5-5-5-5-5-555------------------
E--------------------------------------------------------------------------

Verse 1 x2

G-------------------------------------------------------
D---------------------------------------------------33-2
A-55555555555555555-333333333333333-111111111111111-----
E-------------------------------------------------------

Chorus

G--------------------------------------------------------
D------------------3333333333333-------------------------
A-5555555555555555---------------------------------------
E-------------------------------6666666666666-55555555555

G-------------------------------
D-555555555555555---------------
A----------------5555555-7777777
E-------------------------------

G-------------------------
D-555555555555555---------
A----------------555555555
E-------------------------

Prelude

G--------------------------------------------------------------------------
D--------------------33-3-3-3-3-3-3-333------------------33-3-3-3-3-3-3-333
A-55-5-5-5-5-5-5-555-------------------55-5-5-5-5-5-5-555------------------
E--------------------------------------------------------------------------

Verse 2 x2

G------------------------------------------------------------
D---------------------------------------------------33-2-(3>)
A-55555555555555555-333333333333333-111111111111111----------
E------------------------------------------------------------

Chorus

G--------------------------------------------------------
D------------------3333333333333-------------------------
A-5555555555555555---------------------------------------
E-------------------------------6666666666666-55555555555

G-------------------------------
D-555555555555555---------------
A----------------5555555-7777777
E-------------------------------

G-------------------------
D-555555555555555---------
A----------------555555555
E-------------------------

Bridge x6

G-------
D-------
A-5-----
E--5/8-6

Heavy Part of the Bridge x8

G-------------------
D---------------5555
A-5555-7777-8888----
E-------------------

Prelude

G----------------------
D-5555-----------------
A-----8888-7777-5555-55
E----------------------

Chorus

G---------------------------------------
D-3333333333333-------------------------
A---------------------------------------
E--------------6666666666666-55555555555

G-------------------------------
D-555555555555555---------------
A----------------5555555-7777777
E-------------------------------

G-------------------------
D-555555555555555---------
A----------------555555555
E-------------------------

I think thats all, plz rate this tab!
Suggest correction
comments
print report bad tab
2 comments total.
0 reply
Punk_Rocker27 141 Apr 20, 2005 08:00 PM

its pretty good, except for the prelude this sounds cool (i know its not right, but its cool)

G----------------------------------------------|
D-5-5--7-5-7-5-7-5-7-5--5-5-5-5-5--7-5-8-7-5-3-|
A----------------------------------------------|
E----------------------------------------------|

0 reply
carver188 10 Aug 18, 2008 07:26 PM

I like the change in the Prelude, much easier to play. Thanks

guest
You may want to rate the tab now too:
select rating
Wanna post a correction for this tab? Suggest correction