Oops, an error
Loading. Please wait.

Hawak Kamay tab

version 4
version 4

Whole song

561 views 21 this week
no commentswrite comment
1 2 3 4 5
3 more votes to show rating
add to favorites
×
Save as Personal and add changes to this tab that will be seen only by you. Learn more ›
×
You can save this tab as Personal to edit and correct it or add notes. All changes will be seen only by you. Learn more »
launch autoscroll
font size
0
reset
how to read this tab
guitar tuner
edit
Autoscroll
slow
fast
+/-
esc
set tempo
stop
Author
Difficulty
HAWAK KAMAY by Yeng Constantino

Tabs written and arranged by Edwin-E (in YouTube)
Blog: http://guitarplucking.blogspot.com
Facebook Page: EGuitar

Video Tutorial:  http://www.youtube.com/watch?v=BCECEWwboH8

INTRO:  G   Em   C  D {2x}

E|-----------3--------------3-----2--3--0-----------------2-----|
B|--------3-----3--------3-----3-----------1-----------3-----3--|
G|-----0--------------0-----------------------0-----2-----------|
D|-----------------------------------------------0--------------|
A|--------------------------------3-----------------------------|
E|--3--------------0--------------------------------------------|

E|-----------3--------------3-----2--3--0-----------------2/5--5--|
B|--------3-----3--------3-----3-----------1-----------3----------|
G|-----0--------------0-----------------------0-----2-------------|
D|-----------------------------------------------0----------------|
A|--------------------------------3-------------------------------|
E|--3--------------0----------------------------------------------|


VERSE I:

E|-------------------------------------------------------------|
B|--------0--0--0--0-----------0--------------1----------------|
G|--------------------2--0--0-----2--0-----0-----0--0--2--2/4--|
D|--------------------------------------2--------------0-------|
A|-----2-----------------------------3-------------------------|
E|--3--------------0-------------------------------------------|
G          Em                C          D
 Minsan madarama mo kay bigat ng problema


E|--------------------------0-----------------------------------|
B|--------0--0--0--0--0--3-----------0--1--0-----1--1--0--0-----|
G|-----------------------------0--0-----------0--------------2--|
D|--------------------------------------------------------0-----|
A|-----2-----------------------------------3--------------------|
E|--3--------------------0--------------------------------------|
G             Em              C               D
 Minsan mahihirapan na at masasabing di mo na kaya


E|--------------------------------------------------------------------|
B|-----------1--1--1--0-----------0--0--1--0-----------0--------------|
G|--------2--------------0--2--2--------------0-----------2--2--0--2--|
D|-----2-----------------------------------------2--2--0--------------|
A|--0-----------------------------------3-----------------------------|
E|-----------------------------3--------------------------------------|
Am                     G       C            D
 Tumingin ka lang sa langit baka sakaling may masumpungan


E|----------------------------------------------------------------------------|
B|-----------1--1--1--0-----------3--0-----------1--1--1--1--1--3--3--0--3/5--|
G|--------2--------------0--2--2--------------0-------------------------------|
D|-----2-----------------------------------2--------------------0-------------|
A|--0-----------------------------------3-------------------------------------|
E|-----------------------------3----------------------------------------------|
Am                G     C                 D
 Di kaya ako’y tawagin,  malalaman mong kahit kailan


CHORUS:

E|--3--3--2--3--------3--3--3-----3--3-----3--3--2--3-----------|
B|--------------3-----3--------3--------3--------------------3--|
G|-----------------0--0-----------------------------------0-----|
D|-----------------------------------------------------2--------|
A|--------------------------------------------------3-----------|
E|-----------3-----------------0--------------------------------|
          G         Em                C
 Hawak kamay, di kita iiwan sa paglakbay


E|--3--3--5--5--5--5--5--7/8--7--3--|
B|--------7-------------------------|
G|--------7-------------------------|
D|--------0-------------------------|
A|----------------------------------|
E|----------------------------------|
       D
 Dito sa mundong walang katiyakan


E|--3--3--2--3--3--3-----3--3-----3--3--5--7--------------2--|
B|-----------3--------3--------3--------------8--8--------3--|
G|-----------------------------------------------------2--2--|
D|--------------------------------------------------0--------|
A|-----------------------------------------------------------|
E|--3-----------------0--------------------8-----------------|
 G                 Em                  C      D
 Hawak kamay di kita bibitawan sa paglalakbay


E|-------------------------|
B|-------------------------|
G|--2--4--4/5--4--5--4--0--|
D|-------------------------|
A|-------------------------|
E|----------------------3--|
                 G
 Sa mundo ng kawalan


VERSE II:


E|--------------------------------------------------------------------------|
B|-----0--0--0--0--------0--------------1-----------------0--1--0--------0--|
G|-----------------2--0-----2--0-----0-----0--0--2--2--2-----------2--0-----|
D|--------------------------------2--------------0--------------------------|
A|--2--------------------------3--------------------------------------------|
E|--------------0--------------------------------------------------------3--|
G          Em                C        D
 Minsan madarama mo, Ang mundo'y gumuho sa ilalim ng iyong mga paa


E|-------------------------------------------------2--|
B|-------------3--3--------1--0--------0--------3-----|
G|----0--0--2--------0--0--------0--2--------2--------|
D|----------------------------------------0-----------|
A|----------------------------------3-----------------|
E|----------------0-----------------------------------|
G                    Em               C D
 At ang agos ng problema'y tinatangay ka


E|--------------------------------------------------------------------|
B|-----------1--1--1--0-----------0--0--1--0-----------0--------------|
G|--------2--------------0--2--2--------------0-----------2--2--0--2--|
D|-----2-----------------------------------------2--2--0--------------|
A|--0-----------------------------------3-----------------------------|
E|-----------------------------3--------------------------------------|
Am                    G        C            D
 Tumingin ka lang sa langit, Baka sakaling may masumpangan


E|----------------------------------------------------------------------------|
B|-----------1--1--1--0-----------3--0-----------1--1--1--1--1--3--3--0--3/5--|
G|--------2--------------0--2--2--------------0-------------------------------|
D|-----2-----------------------------------2--------------------0-------------|
A|--0-----------------------------------3-------------------------------------|
E|-----------------------------3----------------------------------------------|
Am                G     C                 D
 Di kaya ako’y tawagin,  malalaman mong kahit kailan

(REPEAT CHORUS except last line)


E|--5--7--8--7--8--7--3--------|
B|-----------------------------|
G|-----------------------------|
D|--------------------------2--|
A|-----------------------2-----|
E|--------------------0--------|
                 Em
Sa mundo ng  kawalan

BRIDGE:


E|--3--5--5/10--10--------8--7---------7--|
B|------------------8--8--------8--10-----|
G|----------------------------------------|
D|--------------9-------------------------|
A|----------------------------------------|
E|---------------------------------8------|
             G               C
Huwag mong sabihing nag-iisa ka,


E|---------10--10--------8--7---------|
B|--8--10----------8--8--------10--8--|
G|------------------------------------|
D|-------------0----------------------|
A|------------------------------------|
E|---------------------------------0--|
           D                      Em
 laging isiping mayron kang kasama


E|-----------7------7---------|
B|--8-----8-----10-----10--8--|
G|-----9----------------------|
D|--------------9-------------|
A|----------------------------|
E|----------------------------|
        G
Narito ako,


E|-----------7------|
B|--8-----8-----10--|
G|-----9------------|
D|--------------0---|
A|------------------|
E|--8---------------|
 C         D
 Narito ako


CHORUS:

E|--3--3--2--3--------3--3--3-----3--3-----3--3--2--3-----------|
B|--------------3-----3--------3--------3--------------------3--|
G|-----------------0--0-----------------------------------0-----|
D|-----------------------------------------------------2--------|
A|--------------------------------------------------3-----------|
E|-----------3-----------------0--------------------------------|
   G                Em            C
 Hawak kamay, di kita iiwan sa paglakbay


E|--3--3--5--5--5--5--5--7/8--7--3--|
B|--------7-------------------------|
G|--------7-------------------------|
D|--------0-------------------------|
A|----------------------------------|
E|----------------------------------|
      D
 Dito sa mundong walang katiyakan


E|--3--3--2--3--3--3-----3--3-----3--3--5--7--------------2--|
B|-----------3--------3--------3--------------8--8--------3--|
G|-----------------------------------------------------2--2--|
D|--------------------------------------------------0--------|
A|-----------------------------------------------------------|
E|--3-----------------0--------------------8-----------------|
   G              Em                     C          D
 Hawak kamay di kita bibitawan sa paglalakbay


E|--5--7--8--7--8--7--7--------7--------|
B|-----------------------8--------8-----|
G|--------------------------7--------7--|
D|--------------------9-----------------|
A|--------------------------------------|
E|--------------------------------------|
                  G
Sa mundo ng  kawalan,


E|--7--7--7h8--7--8--7------------8--------5---|
B|--8-------------------8------8-----8-----7---|
G|--9-----------------------9-----------9--7---|
D|--9-------------------10-----------------7---|
A|---------------------------------------------|
E|---------------------------------------------|
Em                C D
 sa mundo ng kawalan


E|----8--7-----8--7--8--------8--7-----8--7--------8--7---------------8--5--|
B|----------8-----------8-----------8--------8-----------8--8------8-----7--|
G|-------------------------7--------------------9---------------9--------7--|
D|-------------9-----------------------9--------------------10-----------7--|
A|--------------------------------------------------------------------------|
E|--------------------------------------------------------------------------|
           G            Em            C D
 Hawak kamay, hawak kamay, hawak kamay

E|----------------------------------3--3--|
B|-------------------3-----------3-----3--|
G|-----4--5--4--5/7-----------4--------4--|
D|--7----------------------5-----------5--|
A|----------------------5--------------5--|
E|-------------------3-----------------3--|
                  G
 Sa mundo ng kawalan
Suggest correction
Creating personal tab
Creating personal tab
You can edit any tab online and save it as your Personal.

You can edit, replace or remove any tab part or add personal notes – all changes will be seen only by you.

Personal tabs can be accessed anytime from any device, even offline.
Learn more »
Give kudos to tab author, rate the tab!
1 2 3 4 5
comments
print report bad tab
guest
You may want to rate the tab now too:
select rating
Wanna post a correction for this tab? Suggest correction