Oops, an error
Loading. Please wait.

Jeepney Love Story Bass Tab

version 2
version 2

Whole song

415 views 3 this week
no commentswrite comment
1 2 3 4 5
3 more votes to show rating
add to favorites
launch autoscroll
font size
0
reset
guitar tuner
Autoscroll
slow
fast
+/-
esc
set tempo
stop
Help us to improve Ultimate-Guitar.com Take our survey!
×
Jeepney Love Story - Yeng Constantino


Intro:
G|---------------------------|
D|---------9p7------9-7-5-4--|
A|--5--5h7-------7~----------|
E|---------------------------|

First Verse:
G|------------------------------------------|
D|------------------------------------------|
A|--55555555--------------------------------| 3x
E|-----------55555555--00000000--33333333---|

Pre-chorus 1:
G|-----|                G|---------------------------------------|
D|-----|                D|---------------------------------------|
A|--5~-|   (pause)      A|-----------00--22--33--22--33--55--77--|
E|-----|                E|--0000--33-----------------------------|

Chorus:
G|--------------------------------------------|
D|--------------------------------------------|
A|--55555555------------------------00-22-33--| 2x
E|-----------55555555--00000000--33-----------|

G|--------------------------|
D|--------------------------|
A|--5555--------------------| 2x
E|-------55555--0000--3333--|

Second Verse:
G|------------------------------------------|
D|------------------------------------------|
A|--55555555--------------------------------| 3x
E|-----------55555555--00000000--33333333---|

Pre-chorus 2:
G|----------------------------------------------------------------|
D|------------------------7---------------------------------------|
A|--0-5h7p5--------------7------------00--22--33--22--33--55--77--|
E|-----------5-0-3-5--5/7----0000--33-----------------------------|

Chorus:
G|--------------------------------------------|
D|--------------------------------------------|
A|--55555555------------------------00-22-33--| 2x
E|-----------55555555--00000000--33-----------|

Bridge:
G|---------------------------------------|
D|---------------------------------------|
A|------------------55555555h7-3333333---|
E|--00--00--33--33-----------------------|

G|---------------------------------------|
D|--------------------------7/9-7777777--|
A|------------------5555555--------------|
E|--00--00--33--33-----------------------|

G|----------------------------------------|
D|----------55555555---------7/9-7777777--|
A|--7777777----------5555555--------------|
E|----------------------------------------|

G|----------------------------------------|
D|----------55555555-7777777-7/9-7777777--|
A|--7777777-------------------------------|
E|----------------------------------------|

Pero bigla mong hinila ?yung tali
Sabi mo, ?Manong, bababa ako sandali??

Ayoko nang pumara kahit sa?n mapunta
Ayoko nang pumara kung ikaw ang kasama
Ayoko nang pumara, ayoko nang pumara
Ayoko na? ah ah ha
Ayoko nang pumara kahit sa?n pa lumiko
Ayoko nang pumara sana ?di na huminto
Ayoko nang pumara, ayoko nang pumara
Ayoko na?

Interlude:
G|-------------|
D|-------------|
A|-------------|
E|--33333333/--|

Chorus:
G|-----------------------------------------|
D|-----------------------------------------|
A|--55555555-------------------------------|
E|-----------55555555--00000000--33333333--|

G|--------------------------------------------|
D|--------------------------------------------|
A|--55555555------------------------00-22-33--| 2x
E|-----------55555555--00000000--33-----------|

Outro:
G|--------------------------|
D|--------------------------|
A|--5555--------------------| 3x
E|--------5555--0000--3333--|

G|------------------------------------------|
D|------------------------------------------|
A|--5555--------------------------44-5-7-5--|
E|--------5555--00-33-55-77-55-77-----------|

first bass tablature I've ever made...
Comments/Suggestions are welcome. ^^
Alam kong may mga mali pa diyan. Hehehe.
Suggest correction
Give kudos to tab author, rate the tab!
1 2 3 4 5
comments
print report bad tab
guest
You may want to rate the tab now too:
select rating
Wanna post a correction for this tab? Suggest correction