Oops, an error
Loading. Please wait.

Salamat Tab

39,651 views 36 this week
2 commentsread comments
1 2 3 4 5
x 7
add to favorites
launch autoscroll
font size
0
reset
how to read this tab
guitar tuner
Autoscroll
slow
fast
+/-
esc
set tempo
stop
Help us to improve Ultimate-Guitar.com Take our survey!
×
Author
Tuning: EBGDAE(standard)

[Intro]
   A            F#m          D            Dm     Dm7
e|-0-000-00000--2-222-22222--2-222-22222--1-11-1-1-|
B|-2-222-22222--2-222-22222--3-333-33333--3-33-3-1-|
G|-2-222-22222--2-222-22222--2-222-22222--2-22-2-2-|
D|-2-222-22222--4-444-44444--0-000-00000--0-00-0-0-|
A|-0-000-00000--4-444-44444------------------------|
E|--------------2-222-22222------------------------|

[Verse 1]
   A                         F#m       A
e|-------0---0------0------|-------0---0------0------|
B|-------2-T-2---------2---|-------2-T-2---------2---|
G|-----2---A-2----2-----2--|---------A-2----2-----2--|
D|---2-----P----2--------2-|-----4---P----2--------2-|
A|-0-----------------------|---4---------------------|
E|-------------------------|-2-----------------------|
 
   D         A                         A
e|-------0---0------0------|-------0---0------0----0----|
B|-----3-2-T-2---------2---|-----3-2-T-2------------2---|
G|---2-----A-2----2-----2--|---2-----A-2----2----2---2--|
D|-0-------P----2--------2-|-0-------P----2-----2-2---2-|
A|-------------------------|----------------------------|
E|-------------------------|----------------------------|

  A                          F#m
e|-------0---0------0------|-------0---0------0------|
B|-------2-T-2---------2---|-------2-T-2---------2---|
G|-----2---A-2----2-----2--|---------A-2----2-----2--|
D|---2-----P----2--------2-|-----4---P----2--------2-|
A|-0-----------------------|---4---------------------|
E|-------------------------|-2-----------------------|

   D         A               
e|-------0---0------0------|--------------0-|
B|-----3-2-T-2---------2---|-----0-2----3---|
G|---2-----A-2----2-----2--|---2-----2------|
D|-0-------P----2--------2-|-0--------------|
A|-------------------------|----------------|
E|-------------------------|----------------|

[Refrain 1]
Medyo mahirap po dito sa parteng ito,
dapat po kasi mabilis. 
PAKINGGAN niyo po ang kanta para makuha niyo.

  F#m E       F#m E       E          E
e|----0-----0-----0-----0----0-----0—---0-|
B|----0---0-------0---0------0---0------0-|
G|------1-----------1-----111--1-----111--|
D|-444---------444--------222--------222--|
A|-444---------444--------222--------222--|
E|-222---------222--------000--------000--|

e|-9-7-5-7--5-7-5-4-5—-4-5-4-|
B|---------------------------|
G|---------------------------|
D|---------------------------|
A|---------------------------|
E|---------------------------|

e|-9-7-5-7--5-7-5-4-5—-4-5-4-|
B|---------------------------|
G|---------------------------|
D|---------------------------|
A|---------------------------|
E|---------------------------|

  F#m E      F#m E
e|----0-----0----0-----0---|
B|----0---0------0---0-----|
G|----—-1----------1-------|
D|-444--------444----------|
A|-444--------444----------|
E|-222--------222----------|

   E
e|----0-----0----0-----0-------0---|
B|----0---0------0---0---0---0---0-|
G|-111--1-----111--1-------1-------|
D|-222--------222------------------|
A|-222--------222------------------|
E|-000--------000------------------|

e|-9-7-5-7--5-7-5-4-5—-4-5-4-|
B|---------------------------|
G|---------------------------|
D|---------------------------|
A|---------------------------|
E|---------------------------|
  
   Dm
e|-------1----1-1-1-|
B|-----3---3--3-3-2-|
G|---2--------2-2-2-|
D|-0----------0-0-0-|
A|------------------|
E|------------------|

[Chorus]
   A            E            F#m          D            
e|-0-000-00000--0-000-00000--2-222-22222--2-222-22222-|
B|-2-222-22222--0-000-00000--2-222-22222--3-333-33333-|
G|-2-222-22222--1-111-11111—-2-222-22222--2-222-22222-|
D|-2-222-22222--2-222-22222--4-444-44444--0-000-00000-|
A|-0-000-00000--2-222-22222--4-444-44444--------------|
E|--------------0-000-00000--2-222-22222--------------|

   A            E            F#m          D           Dm 
e|-0-000-00000--0-000-00000—-2-222-22222--2-222-22222-1-|
B|-2-222-22222--0-000-00000—-2-222-22222--3-333-33333-3-|
G|-2-222-22222--1-111-11111—-2-222-22222--2-222-22222-2-|
D|-2-222-22222--2-222-22222—-4-444-44444--0-000-00000-0-|
A|-0-000-00000--2-222-22222—-4-444-44444----------------|
E|--------------0-000-00000--2-222-22222----------------|

[Verse 2]
(This is almost the same as Verse 1)
e|-------0---0------0------|-------0---0------0------|
B|-------2-T-2---------2---|-------2-T-2---------2---|
G|-----2---A-2----2-----2--|---------A-2----2-----2--|
D|---2-----P----2--------2-|-----4---P----2--------2-|
A|-0-----------------------|---4---------------------|
E|-------------------------|-2-----------------------|

e|-------0---0------0------|-------0---0------0----0----|
B|-----3-2-T-2---------2---|-----3-2-T-2------------2---|
G|---2-----A-2----2-----2--|---2-----A-2----2----2---2--|
D|-0-------P----2--------2-|-0-------P----2-----2-2---2-|
A|-------------------------|----------------------------|
E|-------------------------|----------------------------|

e|-------0---0------0------|-------0---0------0------|
B|-------2-T-2---------2---|-------2-T-2---------2---|
G|-----2---A-2----2-----2--|---------A-2----2-----2--|
D|---2-----P----2--------2-|-----4---P----2--------2-|
A|-0-----------------------|---4---------------------|
E|-------------------------|-2-----------------------|

e|-------0---0------0------|---------0-|
B|-----3-2-T-2---------2---|-----0-3---|
G|---2-----A-2----2-----2--|---2-------|
D|-0-------P----2--------2-|-0---------|
A|-------------------------|-----------|
E|-------------------------|-----------|

[Refrain 2]
e|-------0------------0---|
B|---------0------------0-|
G|------------------------|
D|-----4------4-----4-----|
A|---4------------4-------|
E|-2------------2---------|

e|-------0------------0---|
B|---------0------------0-|
G|------------------------|
D|-----2------2-----2-----|
A|---2------------2-------|
E|-0------------0---------|

e|-9-7-5-7--5-7-5-4-5—-4-5-4-|
B|---------------------------|
G|---------------------------|
D|---------------------------|
A|---------------------------|
E|---------------------------|

e|-9-7-5-7--5-7-5-4-5—-4-5-4-|
B|---------------------------|
G|---------------------------|
D|---------------------------|
A|---------------------------|
E|---------------------------|

e|-------0------------------0-|
B|----------------------------|
G|----------------------------|
D|-----4----4-------4---------|
A|---4--------4---4---4---4---|
E|-2------------2-------2-----|

e|-------0------------------0-|
B|----------------------------|
G|----------------------------|
D|-----2----2-------2---------|
A|---2--------2---2---2---2---|
E|-0------------0-------0-----|

e|-9-7-5-7--5-7-5-4-5—-4-5-4-|
B|---------------------------|
G|---------------------------|
D|---------------------------|
A|---------------------------|
E|---------------------------|

e|-----------------|
B|-----------------|
G|-7-7-7-7-7-7-7-7-|
D|-7-7-7-7-7-7-7-7-|
A|-5-5-5-5-5-5-5-5-|
E|-----------------|

[Chorus]
e|-------------------------------------|
B|-------------------------------------|
G|-------------------------------------|
D|-7-777-77777s2-222-22222-4-444-44444-|
A|-7-777-77777s2-222-22222-4-444-44444-|
E|-5-555-55555s0-000-00000-2-222-22222-|

(continued)
e|-------------|
B|-------------|
G|-7-777-77777-|
D|-7-777-77777-|
A|-5-555-55555-|
E|-------------|

e|-------------------------------------|
B|-------------------------------------|
G|-------------------------------------|
D|-7-777-77777s2-222-22222-4-444-44444-|
A|-7-777-77777s2-222-22222-4-444-44444-|
E|-5-555-55555s0-000-00000-2-222-22222-|

(continued)
e|-----------------|
B|-----------------|
G|-7-7-7-7-7-7-7-7-|
D|-7-7-7-7-7-7-7-7-|
A|-5-5-5-5-5-5-5-5-|
E|-----------------|

[Bridge]
(Guitar)
e|------------------|
B|------------------|
G|-4--6--7--9--7s6~-|
D|-4--6--7--9--7s6~-|
A|-2--4--5--7--5s4~-|
E|------------------|

(Organ translated to guitar)
e|-2-4-5-|
B|-------|
G|-------| (x8)
D|-------|
A|-------|
E|-------|

(Guitar)
e|-----------------------|
B|-----------------------|
G|-77-6-4---77-6-4--77-6~|
D|-77-6-4---77-6-4--77-6~|
A|-55-4-2---55-4-2--55-4~|
E|-----------------------|

(Organ translated to guitar)
e|-2-4-5-|
B|-------|
G|-------| (x8)
D|-------|
A|-------|
E|-------|

(Guitar)
e|-----------------------|
B|-----------------------|
G|-77-6-4---77-6-4--77-6~|
D|-77-6-4---77-6-4--77-6~|
A|-55-4-2---55-4-2--55-4~|
E|-----------------------|

(Organ translated to guitar)
e|-2-4-5-|
B|-------|
G|-------| (x8)
D|-------|
A|-------|
E|-------|

(Guitar)
e|-----------------------|
B|-----------------------|
G|-77-6-4---77-6-4--77-6~|
D|-77-6-4---77-6-4--77-6~|
A|-55-4-2---55-4-2--55-4~|
E|-----------------------|

(Organ translated to guitar)
e|-2-4-5-|
B|-------|
G|-------| (x8)
D|-------|
A|-------|
E|-------|

e|---------------------------|
B|---------------------------|
G|-7-7-7-7-7-7-7-7-7-7-7-7-7-|
D|-7-7-7-7-7-7-7-7-7-7-7-7-7-|
A|-5-5-5-5-5-5-5-5-5-5-5-5-5-|
E|---------------------------|

[Outro]
e|-------------------------------------------------|
B|-------------------------------------------------|
G|-4-444-44444-------------------------------------|
D|-4-444-44444-4-444-44444-6-666-66666-2-222-22222-|
A|-2-222-22222-4-444-44444-6-666-66666-2-222-22222-|
E|-------------2-222-22222-4-444-44444-0-000-00000-|

e|-------------------------------------------------|
B|-------------------------------------------------|
G|-4-444-44444-----------------------------------6-|
D|-4-444-44444-4-444-44444-6-666-66666-2-4-6-7-9-6-|
A|-2-222-22222-4-444-44444-6-666-66666-2-4-6-7-9-4-|
E|-------------2-222-22222-4-444-44444-0-2-4-5-7---|

e|--------------------------------------------------------|
B|--------------------------------------------------------|
G|-4-444-44444-------------------------11-1-11-1-11-1-1-1-|
D|-4-444-44444-4-444-44444-6-666-66666-22-2-22-2-22-2-2-2-|
A|-2-222-22222-4-444-44444-6-666-66666-22-2-22-2-22-2-2-2-|
E|-------------2-222-22222-4-444-44444-00-0-00-0-00-0-0-0-|


************************************

| ~  Vibrato

************************************
Suggest correction
comments
print report bad tab
2 comments total.
0 reply
10guitarz84 153 Apr 06, 2007 02:44 AM

Pano po ba mae-edit tong tab?

0 reply
paul21 618 May 04, 2007 09:49 PM

yUcK ang baho.. Yeng yEnG YEnG!! hahaha

guest
You may want to rate the tab now too:
select rating
Wanna post a correction for this tab? Suggest correction