Oops, an error
Loading. Please wait.

Siguro Bass Tab

2,246 views 3 this week
no commentswrite comment
1 2 3 4 5
please rate
add to favorites
launch autoscroll
font size
0
reset
guitar tuner
Autoscroll
slow
fast
+/-
esc
set tempo
stop
Help us to improve Ultimate-Guitar.com Take our survey!
×
Author
Siguro
yeng constantino
Tabbed: avill616@yahoo.com

Intro                               verse
G|-----------------------|          G|-----------------------|
D|-------------------7-7-|          D|-------------------7-7-|
A|-7-7---7-7---9-9-------|          A|-7-7---7-7---9-9-------|
E|-----------------------|2x        E|-----------------------|3x

Prechorus 
G|--------------|----------------------------|
D|------------6-|----------------------------|
A|-7-7---9-9----|-7-7---9-9------------------|
E|--------------|------------7-7-7-7-5-5-4-2-|

Chorus1 
G|-----------------------------------------------------------------|
D|-----------------------------------------------------------------|
A|-7-7-7-7-7-7-7-7-----------------4-4-4-4-4-4-4-4-----------------|
E|-----------------4-4-4-4-4-4-4-4-----------------7-7-7-7-5-5-4-2-|

G|---------------------------------------------------|
D|---------------------------------------------------|
A|-7-7-7-7-7-7-7-7-----------------4-4-4-4-4-4-4-4---|
E|-----------------4-4-4-4-4-4-4-4-----------------7-|

Repeat verse Repeat prechorus

Chorus2 (x2)
G|-----------------------------------------------------------------|
D|-----------------------------------------------------------------|
A|-7-7-7-7-7-7-7-7-----------------4-4-4-4-4-4-4-4-----------------|
E|-----------------4-4-4-4-4-4-4-4-----------------7-7-7-7-5-5-4-2-|

Bridge 
G|--------------------------------------------------------------------|
D|--------------------------------------------------------------------|
A|-9-9-9-9-9-9-9-9----------------------------------------12-12-12-12-|
E|-----------------7-7-7-7-7-7-7-7-4-4-4-4-4-4-4-4-5-5-5-5\-----------|

G|-----------------------------------------------------------------|
D|-----------------------------------------------------------------|
A|-9-9-9-9-9-9-9-9-----------------9-9-9-9-9-9-9-9-----------------|
E|-----------------7-7-7-7-5-5-4-2-----------------7-7-7-7-5-5-4-2-|

Chorus3 
G|--------------------|---------|-----------------|
D|--------------------|---------|-----------------|
A|-7----------------4-|--pause--|-----------------| 
E|---------4----------|---------|-7-7-7-7-5-5-4-2-| 

Repeat chorus2
Repeat chorus2 (outro) end with E
Suggest correction
Give kudos to tab author, rate the tab!
1 2 3 4 5
comments
print report bad tab
guest
You may want to rate the tab now too:
select rating
Wanna post a correction for this tab? Suggest correction