Oops, an error
Loading. Please wait.

A Venture Bass Tab

by Yes
3,297 views 6 this week
no commentswrite comment
1 2 3 4 5
please rate
add to favorites
launch autoscroll
font size
0
reset
guitar tuner
Autoscroll
slow
fast
+/-
esc
set tempo
stop
Help us to improve Ultimate-Guitar.com Take our survey!
×
Author
A Venture, Yes
Bassist: Chris Squire


Verse 1 (2/4)
G|--------|--------|--------|--------|--------|--------|
D|5-------|5-------|5-------|5-------|5-------|5-------|
A|----5---|----5---|----5---|----5---|----5---|----5---|
E|--------|--------|--------|--------|--------|--------|
 (3/4)
G|------------|------------|------------|------------|
D|5-----------|5-----------|5-----------|5---------3-|
A|------------|------------|------------|--------5---|
E|------3-----|------3-----|------3-----|------3-----|
Verse 2 (2/4)
G|--------|--------|--------|--------|--------|--------|
D|5-------|5-------|5-------|5-------|5-------|5-------|
A|----5---|----5---|----5---|----5---|----5---|----5---|
E|--------|--------|--------|--------|--------|--------|
 (3/4)
G|------------|------------|------------|------------|
D|5-----------|5-----------|5-----------|5-----------|
A|------------|------------|------------|--------0-2-|
E|------3-----|------3-----|------3-----|------3-----|
Chorus (4/4)        (5/4)                                 (7/8)
G|-----------------|--------------------|----------------|--------------|
D|-----------------|--------------------|----------------|--------------|
A|3--------3-------|--6--5--3-----------|3-------3-------|--6--5--3--1--|
E|----3--------3---|-----------6--5--3--|----3-------3---|--------------|
“Hide away...” (2/4)
G|--------|--------|--------|--------|--------|--------|
D|5-------|55-5----|5--5----|55-5----|5--5----|5--5----|
A|----5--5|----5--5|----5--5|----5--5|----5--5|----5\--|
E|--------|--------|--------|--------|--------|--------|
Bridge
G|--------|--------|--------|--------|--------|--------|
D|--------|--------|--------|--------|--------|--------|
A|--------|--------|----1-0-|--------|--------|----1-0-|
E|3-------|3-------|--------|3-------|3-------|--------|
“Hide away...”
G|--------|--------|--------|--------|--------|--------|
D|5-------|55-5----|5--5----|5--5----|55-5----|5-------|
A|----5--5|----5--5|----5--5|----5--5|----5--5|----0-2-|
E|--------|--------|--------|--------|--------|--3-----|
Chorus (4/4)        (5/4)                                 (7/8)
G|-----------------|--------------------|----------------|--------------|
D|-----------------|--------------------|----------------|--------------|
A|3--------3-------|--6--5--3-----------|3-------3-------|--6--5--3--1--|
E|----3--------3---|-----------6--5--3--|----3-------3---|--------------|
“Hide away...” (2/4)
G|--------|--------|--------|--------|--------|--------|
D|5-------|55-5----|5--5----|55-5----|5--5----|5--5----|
A|----5--5|----5--5|----5--5|----5--5|----5--5|----5---|
E|--------|--------|--------|--------|--------|--------|

Outro (piano solo)
G|--------|--------|--------|--------|--------|-----5--|
D|5--5----|55-5----|5--5----|55-5--5-|5--5----|5/125---|
A|----5--5|----5--5|----5--5|-----5--|----5--5|------5-|
E|--------|--------|--------|--------|--------|--------|

G|----55--|--------|--5-----|--55----|--------|--------|
D|5--5----|--55----|5------5|-5--5---|-------3|-3------|
A|-------5|-5------|-----5--|------5-|----55--|---3-35-|
E|--------|--------|--------|--------|3--3----|--------|

                         Continue ad.lib and fade out...
G|--------|--------|--------|--------|--------|-------|
D|------3-|-3-3-35-|--------|--------|--------|-------|
A|----35--|--------|5-----3-|-1-3----|--------|-------|
E|3--3----|--------|--------|-----1/-|3-etc...|-------|

tabbed by thehallway. (hall_matt94@hotmail.co.uk)
Suggest correction
Give kudos to tab author, rate the tab!
1 2 3 4 5
comments
print report bad tab
guest
You may want to rate the tab now too:
select rating
Please do not post tabs as comments. Select "correction" instead!