Oops, an error
Loading. Please wait.

America solo tab

by Yes
448 views 9 this week
no commentswrite comment
1 2 3 4 5
x 3
add to favorites
×
Save as Personal and add changes to this tab that will be seen only by you. Learn more ›
×
You can save this tab as Personal to edit and correct it or add notes. All changes will be seen only by you. Learn more »
launch autoscroll
font size
0
reset
how to read this tab
guitar tuner
edit
Autoscroll
slow
fast
+/-
esc
set tempo
stop
Author
Difficulty
About this tab version
Hand positioning based on the original song and live recordings. Was this info helpful? Yes No
America
Simon and Garfunkel
Arrangement by Yes (1972)

Tabbed by Tiagoon


[Overdriven Guitar]


e|------2-------3-------|-2--------------------|------2-------3-------|-2--------------------|
B|------x-------x-------|-x--------------------|------x-------x-------|-x--------------------|
G|------2-------4-------|-2-------0-5\4-2------|------2-------4-------|-2-------0-5\4-2------|
D|-0---------0-------0--|------0----------3\2--|-0---------0-------0--|------0----------3\2--|
A|----------------------|----------------------|----------------------|----------------------|
E|----------------------|----------------------|----------------------|----------------------|

                     
e|------4-------5-------|-4--------------------|------6-------7-------|-6----------------------|
B|------x-------x-------|-x--------------------|------x-------x-------|-x-------------------7--|
G|------4----x--6----x--|-4-------0-7\6-4------|------6-------8-------|-6----6--0--9p8p6-------|
D|----------------------|-----------------5\4--|-4--------------------|------------------8-----|
A|----------------------|----------------------|----------------------|------------------------|
E|-0--------------------|----------------------|----------------------|------------------------|

                                                                  PM        PM         PM
e|--------------------------|-------------------------|------------------------|-----------------------|
B|-10p9p7-------------------|-------------------------|------------------------|----------0----0-------|
G|--------9p8p6-9p8p6-------|-------------------------|------8--------9--------|-8---------------------|
D|--------------------8\6p4-|-7p6p4-------------------|-9----9-----------9-----|----9------------------|
A|--------------------------|-------\3--0--3p2p0------|-9---------11--------9--|-------9----------5/6--|
E|--------------------------|--------------------2----|-7----------------------|-----------------------|

             PM        PM
e|------------------------|------------------------|----19-------------12------|--7-------0-------0--|
B|-x----------------------|-----------------19b21--|----------12b14--------7b9-|---------------------|
G|-x----8--------9--------|-8--8-----8-------------|---------------------------|-----4h6-------------|
D|-x----9-----------9-----|----9-------------------|---------------------------|-------------4h6-----|
A|------9----11--------9--|-------9----------------|---------------------------|---------------------|
E|------------------------|------------------------|---------------------------|---------------------|


e|------0-------0-------|-0-------0-------0---|-----7-------------------|------------------------|
B|----------------------|---------------------|-------------------------|------------------------|
G|-4h6-------------4h6--|------------4h6-----6b8---------pb8r6p4--6--4--|-6--4--6b8----4---------|
D|---------4h6----------|----4h6--------------|-------------------------|------------------------|
A|----------------------|---------------------|-------------------------|---------------------2--|
E|----------------------|---------------------|-------------------------|------------------------|

                                                                                          hit one note while
                                                                                          sliding the other
e|-------------------------------|-----4--------------------|---------0-----0-----|--0-----0----0------0---|
B|-------------------------------|--------7--4--------------|---------------------|------------------------|
G|---------------------------4--4h6b7-----------7p6p4--4----|----4/9-----9-----6--|-----9-----9/11--11/13--|
D|-1---------2---------4---------|-------------------6------|---------------------|------------------------|
A|----(2)/4-----(4)/6-----6------|--------------------------|---------------------|------------------------|
E|-------------------------------|--------------------------|---------------------|------------------------|


                                                         pick and finger    (v) Hold this note
e|-0--0-----0--------x--12-----12-----------------------|----5------7------|-9--------------------|
B|-0-----0--0--x-----x--12h14--12-----------------------|------------------|----------------------|
G|-0--------------x-------|-------(13)\11---------------|------------------|----------------------|
D|------------------------|----------------11--9--------|----7------6------|-5-------5-------5----|
A|------------------------|-----------------------11\---|------------------|------7-------7-------|
E|------------------------|-----------------------------|------------------|----------------------|

                          hold                                                hold
e|------10------12------|-14------------------------|-------15------17------|-19--------------------------|
B|----------------------|---------------------------|-----------------------------------------------------|
G|----------------------|---------------------------|-----------------------------------------------------|
D|------12------11------|-10--------10--------10----|-------17------16------|-15--------15----------15----|
A|-7--------------------|-------12--------12--------|-12--------------------|-------17--------17----------|
E|----------------------|---------------------------|-----------------------|-----------------------------|


e|-------12------14------|-16-----------14---------14--|--------14-----------14----|
B|-----------------------|-------12b14------12b14------|-12b14--------12b14------12b14|
G|-----------------------|-----------------------------|---------------------------|
D|-------14------13------|-12--------------------------|---------------------------|
A|-17--------------------|-----------------------------|---------------------------|
E|-----------------------|-----------------------------|---------------------------|


e|--14---------14---------14--|--------------------------------|---------------------------|
B|------12b14------12b14------|-pb14r12--10--------------------|---------------------------|
G|----------------------------|--------------11--9-------------|---------------12----------|
D|----------------------------|---------------------11--9------|-------------------11------|
A|----------------------------|----------------------------12--|-11--10----------------10--|
E|----------------------------|--------------------------------|---------------------------|


e|--------14-----------17----|--------15----------------|----------------------------------------------|
B|-12b14--------15b17--------|-15b17------15b16r15------|----------------------------------------------|
G|---------------------------|--------------------------|-12----------11---------10--------9-----------|
D|---------------------------|--------------------------|-----11----------10---------9--------7--------|
A|---------------------------|--------------------------|---------10----------9---------8--------6\----|
E|---------------------------|--------------------------|----------------------------------------------|

   PM       PM--|    PM      PM--|    PM--|    PM--|             PM
e|-------------------------|-------------------------|-----------------------|------------------------|
B|-------------------------|-------------------------|-----------------------|------------------------|
G|----0--------0--------0--|-------0--------0--------|-0----0----0--0--0-----|------------------------|
D|-2-----2--------2--------|-2--------2--------2-----|--------------------2--|------------------------|
A|-0--------0--------0-----|----0--------0--------0--|-----------------------|--------0-1-2-3-4-5-6-7-|
E|-------------------------|-------------------------|-----------------------|------------------------|

   PM    PM--|    PM--|      PM--|    PM--|    PM--|             PM
e|-------------------------|-------------------------|-----------------------|------------------------|
B|-------------------------|-------------------------|-----------------------|------------------------|
G|----0--------0--------0--|-------0--------0--------|-0----0----0--0--0-----|-------x-----x-----x----|
D|-2-----2--------2--------|-2--------2--------2-----|--------------------2--|----------x--------x----|
A|-0--------0--------0-----|----0--------0--------0--|-----------------------|----x-----x-----x-------|
E|-------------------------|-------------------------|-----------------------|------------------------|

   PM--------|    PM      PM--|    PM--|    PM--|             PM
e|-------------------------|-------------------------|----------------------|---------------15\----|
B|-------------------------|-------------------------|----------------------|------------x--14\----|
G|-------------0--------0--|-------0--------0--------|-0----0----0----0-----|------------x--12\----|
D|-------2--------2--------|-2--------2--------2-----|-------------------2--|----2----x-----14\----|
A|-0--------0--------0-----|----0--------0--------0--|----------------------|----------------------|
E|-------------------------|-------------------------|----------------------|----------------------|

   PM       PM    PM--|      PM--|    PM--|    PM--|      PM--|    PM--|    PM----|    PM--|    PM--|
e|-------------------------|-------------------------|-------------------------|-------------------------|
B|-------------------------|-------------------------|-------------------------|-------------------------|
G|----0--------0--------0--|-------0--------0--------|-0--------0--------0-----|----0--------0--------0--|
D|-------2--------2--------|-2--------2--------2-----|----2--------2--------2--|-------2--------2--------|
A|-0--------0--------0-----|----0--------0--------0--|-------0--------0--------|-0--------0--------0-----|
E|-------------------------|-------------------------|-------------------------|-------------------------|

            PM-----|    PM--------|    PM-----|                 PM-----|    PM          PM
e|----------------------------|--------------------------|------------------------|-------------------------|
B|----------------------------|--------------------------|------------------------|-------------------------|
G|(5)\4--2-----------2--------|-----2-----------2-----4b5r4--2-----------2-----2--|--2----------------------|
D|(5)\4--2--4--2--4--2--4--2--|--4--2--4--2--4--2-----x--|------4--2--4--2-(4)-2--|--2-----2h4--2-----------|
A|----------0-----0-----0-----|--0-----0-----0--0--0--0--|------0-----0-----0--0--|----(0)--------(3)\2--0--|
E|----------------------------|--------------------------|------------------------|-------------------------|

           PM-----|    PM-------|    PM-----|                 PM             PM
e|---------------------------|------------------------|----------------------------|-----------------0--|
B|---------------------------|------------------------|----------------------------|--------------0--0--|
G|-4b5--2-----------2--------|----2-----------2-------|-------------------------2--|--------------x-----|
D|------------2--4-----4--2--|-4-----4--2--4--2----2--|-------------------------2--|--------------------|
A|---------0-----0-----0-----|-0-----0-----0--0----0--|(4)\3--0--2--0--2--0-----0--|--------------------|
E|---------------------------|------------------------|----------------------2-----|--0------2----------|


e|-7b8--5-----------5-------|----5----------5--0--x7b8r7--5-----------5------|--------------0--7b8r7|
B|-7b8--5-------------------|-------7p5-----5---------|---5--7--5------------|-----------------7b8r7|
G|---------7--5--6-----7p5--|-6-----7p5--6------------|------7-----6-----7--6\5/6\5--6\5----------|
D|--------------------------|-------------------------|---------------------5\4/5\4--5\4----------|
A|--------------------------|-------------------------|----------------------|--------------------|
E|--------------------------|-------------------------|----------------------|--------------------|


e|--5-----------5--------|----5----------5-----7b8r7--5-------------------|------------------|
B|--5-----------5--------|----5----------5-----7b8r7--5--7--5-------------|------------------|
G|-----7--5--6-----7--5--|-6-----7p5--6-----6-----|------------6h7--6--6--|------------------|
D|-----------------------|------------------------|--------------------5--|----5-------------|
A|-----------------------|------------------------|-----------------------|-------0----------|
E|-----------------------|------------------------|-----------------------|-----------7b8r7--|

   PM
e|----8----------8----------15--|--14----13----12-----------|----8----------8-----------|
B|-------10---------10----------|------------------13b14----|-x-----10---------10-------|
G|-----------12---------12------|---------------------------|-----------12---------12--7b9|
D|(0)---------------------------|---------------------------|---------------------------|
A|-0----------------------------|---------------------------|---------------------------|
E|------------------------------|---------------------------|---------------------------|

                           PM                                                                  PM        PM
e|-----------------------|----8----------8----------15--|--14----13----12-----------|---8-------------------8|
B|-----------------------|-------10---------10----------|------------------13b14----|-x----10----------------|
G|--7----5--7p5----------|-----------12---------12------|---------------------------|----------12--5---------|
D|--------------7--7p5---|------------------------------|---------------------------|-----------------7------|
A|---------------------7-|-0----------------------------|---------------------------|--------------------9---|
E|-----------------------|------------------------------|---------------------------|------------------------|

       PM        PM        PM          PM        PM          PM                 PM
e|------------------8----------|----------8----------------|----8--------8------------|
B|-10------------------10------|-------------10------------|-------10-------10--------|
G|-----12--5---------------12--|-5---------------12--5-----|--------------------11----|
D|------------7----------------|----7-------------------7--|--------------------------|
A|---------------9-------------|-------9-------------------|-9------------------------|
E|-----------------------------|---------------------------|--------------------------|


[Distorted Guitar]

e|--------17----------------|------------------------|--------17-----------------------------------------|
B|-17b19--------17b19r17----|-17p15h17p15------------|-17b19--------17b19r17----|-17p15h17p15------------|
G|--------------------------|------------------16----|---------------------------------------------14----|
D|--------------------------|------------------------|---------------------------------------------------|
A|--------------------------|------------------------|---------------------------------------------------|
E|--------------------------|------------------------|---------------------------------------------------|


e|--------10----------------|----------------|--------10---------------------------------|
B|-10b12--------10b12r10-(8)|-10p8h10p8\7----|-10b12--------10b12r10-(8)|-10p8h10p8\7----|
G|--------------------------|----------------|-------------------------------------------|
D|--------------------------|----------------|-------------------------------------------|
A|--------------------------|----------------|-------------------------------------------|
E|--------------------------|----------------|-------------------------------------------|


e|--------17---------------|------------------------|--------17------------------|-------------------------|
B|-17b19--------pb19r17----|-15p14h15p14------------|-17b19--------17b19r17-----(15)h17p15--17p15\14----17b19|
G|-------------------------|------------------14----|----------------------------|-------------------------|
D|-------------------------|------------------------|----------------------------|-------------------------|
A|-------------------------|------------------------|----------------------------|-------------------------|
E|-------------------------|------------------------|----------------------------|-------------------------|


e|----17-----------------|------------------------|------------------------|--------------------|------------|
B|--------17b19r17----14-|-15p14h15p14------------|-15p14h15p14------------|-15p14h15p14--------|------------|
G|-----------------------|------------------14----|------------------14----|------------------14\13----------|
D|-----------------------|------------------------|------------------------|--------------------|------------|
A|-----------------------|------------------------|------------------------|--------------------|------------|
E|-----------------------|------------------------|------------------------|--------------------|------------|


e|---------------|----2p0--------------|-3p0---5p0---7p0---9p0---|-9h10p9h10p9h10p9h10p9-------------------|
B|---------------|--------1-1p0---1----|-----4-----4-----8-----8-|--------------------|---8~~~~~~~~~~~~-15b17|
G|---------------|--------------2------|-------------------------|--------------------|--------------------|
D|---------------|---------------------|-------------------------|--------------------|--------------------|
A|---------------|---------------------|-------------------------|--------------------|--------------------|
E|---------------|---------------------|-------------------------|--------------------|--------------------|


e|----17-----------15-------|-------------------|----------------12--|(15)h17p15p12--------------------------|
B|----------15b17------15b16r15p13h15p13--------|--------------------|-------------(15)h17p15p12-------------|
G|--------------------------|-----------------14\13------------------|---------------------------16p14p12----|
D|--------------------------|-------------------|--------------------|---------------------------------------|
A|--------------------------|-------------------|--------------------|---------------------------------------|
E|--------------------------|-------------------|--------------------|---------------------------------------|


e|---------19----------------|-3p0---5p0---7p0---9p0---|
B|--17b19-------pb19r17------|-----4-----4-----8-----8-|
G|---------------------------|-------------------------|
D|---------------------------|-------------------------|
A|---------------------------|-------------------------|
E|---------------------------|-------------------------|


[Overdriven Guitar]

e|-----------------------|------0---------------|-----------------------|---------------------------------|
B|-----------------------|----------------------|-----------------------|---------------------------------|
G|-2----2----------2--2--|-4/6-----6\4--0-------|-----------------------|---------------------------------|
D|-2----2--2-------------|-----------------1h2--|-2-----2---------2--2--|(2)h4--2-------------------------|
A|-0----0--0--3h4--------|----------------------|-0--0--0----3h4--------|---------(3)p2--0--3p2--0--------|
E|-----------------------|----------------------|-----------------------|---------------------------2--0--|


e|------------------------|------0-------0-------|-0-------0--------0----|----0--------|
B|------------------------|----------------------|-----------------------|-------------|
G|------------------2--2--|-4/6-----6\4-----7\6--|----9\7-----11\9-----13\11-----14----|
D|------------------------|----------------------|-----------------------|-------------|
A|-0--0--0--0--2/3--------|----------------------|-----------------------|-------------|
E|------------------------|----------------------|-----------------------|-------------|


e|--------19-----------12---|---7-------0-------0---|
B|-19b21--------12b14------7b9----------------------|
G|--------------------------|------4h6--------------|
D|--------------------------|--------------4h6------|
A|--------------------------|-----------------------|
E|--------------------------|-----------------------|


| h   Hammer-on
| p   Pull-off
| x   Dead note
| ()  Ghost note and grace note
| b   Bend
| br  Bend release
| pb  Pre-bend
| pbr Pre-bend release
| /   Slide up
| \   Slide down
| ~   Vibrato
| PM  Palm mute

************************************
Suggest correction
Creating personal tab
Creating personal tab
You can edit any tab online and save it as your Personal.

You can edit, replace or remove any tab part or add personal notes – all changes will be seen only by you.

Personal tabs can be accessed anytime from any device, even offline.
Learn more »
Give kudos to tab author, rate the tab!
1 2 3 4 5
comments
print report bad tab
guest
You may want to rate the tab now too:
select rating
Wanna post a correction for this tab? Suggest correction