Oops, an error
Loading. Please wait.

And You And I Chords

version 1
version 1

Whole song

  • Incudes Lyrics, Chord, Tab, Bass.

Interactive

by Yes
268 views 21 this week
no commentswrite comment
1 2 3 4 5
3 more votes to show rating
add to favorites
launch autoscroll
font size
0
reset
transpose
0
reset
simplify chords
display chords
guitar tuner
Autoscroll
slow
fast
+/-
esc
set tempo
stop
Help us to improve Ultimate-Guitar.com Take our survey!
×
Author
About this tab version
Incudes Lyrics, Chord, Tab, Bass. Was this info helpful? Yes No
-----------------------------------------------------------------------------
           And you and I part III. The Preacher The Teacher - YES
-----------------------------------------------------------------------------

                                     Yes
                                And You And I
Tab Written By Jason Albrecht
Acordes por @elguardaparque
-Argentina-
Bass by spaceyhippie 
Lyrics And Song By : Yes
 song starts with harmonics
E------------------------------------------------5-----7--12----7-----|
B------------------------------------------7--------------12----7-----|
G---------------------------------7-----------------------12----7-----|
D------------------------7-----5--------9-----------------12----7-----|
A-----------7--------5------------------------------------12----7-----|
E---------------7-----------------------------------------12----7-----|

E--------------------------------------------------------------12-------|
B-------------12-------------------------------------12-----------------|
G---------12------------------------------12----------------12----------|
D-----12------------------------12---------------12---------------------|
A---------------------------12--------12--------------------------------|
E-----------------------12----------------------------------------------|

E------------------------------------------5--7---------------------------|
B------------------------------------7----------------5--7-----------7----|
G------------------------------5--7----------------5--------------5-------|
D---------------------5--7-------------------------------------5----------|
A------------5--7---------------------------------------------------------|
E---5--7------------------------------------------------------------------|

E-------------------------7------|
B----------------------7---------|
G-------------------5------------|
D-----7--------------------------|
A--------7-----7-----------------|
E-----------5--------------------|

E------------------5---------------|--------------5--------------------------|
B------8---7---0---------------7---|---8---7---0------------8----------------|
G------0---------------------------|---0-------------------------------------|
D----------------------------------|-------------------7---------------------|
A---------------------------7------|-------------------0---------------------|
E---------------------------0------|-----------------------------------------|

E---------------5---------------------|
B----8---7---0----------7-------------|
G----0--------------------------------|
D----------------------------7--------|
A------------------7---------0--------|
E------------------0------------------|

E---22222--77----9--9--9--9--9--77---|
B---33333--88---10-10-10-10-10--88---|
G---22222--77----9--9--9--9--9--77---|
D---00000--00----0--0--0--0--0--00---|
A---00000--00----0--0--0--0--0--00---|
E---00000--00----0--0--0--0--0--00---|

continue these chords through rest of song. the last post for this song was wrong for 
i think so heres the right ones :).

Intro:

E||-----------------5----|
B||-------7----0---------|
G||--0-------------------|
D||----------------------|
A||----------------------|
E||----------------------|
   
--------------------|-----------------5----|
--------------------|-------7----0---------|
--------------------|--0-------------------|
--------------------|----------------------|
-------9------------|----------------------|
--0-----------------|----------------------|
    
--------------------|-----------------5----|
--------------------|-------7----0---------|
--------------------|--0-------------------|
-------5------------|----------------------|
--0-----------------|----------------------|
--------------------|----------------------|
 
--------------------|-----------------5----|
--------------------|-------7----0---------|
-------9------------|--0-------------------|
--0-----------------|----------------------|
--------------------|----------------------|
--------------------|----------------------|

----------------------|
----------------------|
----------------------|
----------------------|
-------9s----5--------|
--0-------------------|
 
-----------------5----|
-------7----0---------|
--0-------------------|
----------------------|
----------------------|
----------------------|

------------------------|
------------------------|
------------------------|
-------5g4--------------|
--0---------------0--0--|
------------------------|

-----------------5----||
-------7----0---------||
--0-------------------||
----------------------||
----------------------||
----------------------||
|D*| A man con-|G/D| ceived a |A/D| moment's answer |G/D| to the 
|D*| dream |G/D - A/D - G/D| 
|D*| Staying the |G/D| flowers |A/D| daily, sensing |G/D| all the 
|D*| themes |G/D - A/D - G/D| 

As a |D*| foundation left to |G/D| create the |A/D| spiral aim |G/D| 
A |D*| movement regained and re-|G/D| garded |A/D| both the same |G/D| 
|D*| All complete |G/D| in the |A/D| sight of seeds of |G/D| life with
|D*| you |G/D - A/D - G/D| 

|D*| Changed only |G/D| for a |A/D| sight of sound, the |G/D| space
a-|D*| greed |G/D - A/D - G/D| 
|D*| Between the |G/D| picture |A/D| of time behind the |G/D| face of
|D*| need |G/D - A/D - G/D| 

Coming |D*| quickly to terms of |G/D| all ex-|A/D| pression laid |G/D| 
E-|D*| motions revealed as the |G/D| ocean |A/D| maid |G/D| 
|D*| All complete |G/D| in the |A/D| sight of seeds of |G/D| life with  
|D*| you |G/D - A/D|
|G/D| Oh-oh

......|Bb| Coins and crosses |C| never know their |Am| fruitless worth
......|Bb| Cords are broken, |C| locked inside the |Em| mother Earth
......|Bb| They won't hide, hold, |Gm| they won't tell you
......|D4| Watching the |D| world, watching |D4| all of the |D| world
......Watching |A| us go by |A| 

|A| And you and |C#m| I climb |F#m| over the |E| sea to the
|A| valley |Bm - C#m - Bm|  
|A| And you and |C#m| I reach |F#m| out for reasons to  

......|A7sus4| ca-----all

Instr: |D - G - F - G - F - C|
Instr: |A - D - C - D - C - G|
Instr: |E - Em/D - Em/C# - Em/C - G - D|
Instr: |B - E - D - E - D - A --- E|

Instr: |B| - |A - E - F#m - B| x 2 

|A| Coming |E| quickly to terms of |F#m| all ex-|B| pression laid
|A| E-|E| motions revealed as the |F#m| ocean |B| maid
|A| As a |E| movement regained and re-|F#m| garded |B| both the same |A| 
|E| All complete |F#m| in the |B| sight of seeds of |A| life with |E| you

Instr: |A - G - A - G - D|
Instr: |B - B/A - G#m7 - G|

Instr: |Tab.| x 2 (segunda vez hasta *) + |E - F#m - B - A --- E - A - B - A| x 2

  
E5 xx2400(2/4)
Bsus4 xx4400(1/4)
B x24400 (2/4)
F#7sus4 x44400 (1/4)
G#m7 4x4400 (2/4)
B7sus4 x04400 (1/4)
B x24400 (2/4)
F#7sus4 x44400 (1/4)

E5           Bsus4  B                 F#7sus4  G#m7  B7sus4  B F#7sus4
Sad preacher nailed upon the coloured door of time;
E5      Bsus4     B              F#7sus4  G#m7  B7sus4  B F#7sus4
Insane teacher be there reminded of the rhyme.
E5                          Bsus4    Esus2*   B7sus4
There'll be no mutant enemy we shall certify;
  G#m4             B7sus4   B              F#7sus4
Political ends, as sad remains, will die.
E5           Bsus4  B                 F#7sus4
Reach out as forward tastes begin to enter you.

C#m7 x46454 (2/4) -|
F#m xxx222 (1/4)   |   x2
G#m 466444 (2/4)   |  
F#m xxx222 (1/4)  _|

E          F#m      B     A/C#
I listened hard but could not see
E/G#       A          B          A/C#
Life tempo change out and inside me.
E            F#m        B      A/C#
The preacher trained in all to lose his name;
E/G#        A           B                A/C#
The teacher travels, asking to be shown the same.
C#m7                     F#m                 G#m         F#m
In the end, we'll agree, we'll accept, we'll immortalise
C#m7                      F#m      G#m           F#m
That the truth of the man maturing in his eyes,
C#m7         F#m    G#m               F#m
All complete in the sight of seeds of life with you.


Keyboard solo

C#m7 (2/4) -|
F#m (1/4)   |   x2
G#m (2/4)   |  
F#m (1/4)  _|


       C#m7                F#m   G#m               F#m
Coming quickly to terms of all expression 
     C#m7                F#m      G#m               F#m
As a moment regained and regarded both the same,
 C#m7                F#m      G#m    A
Emotion revealed as the ocean maid,
E          F#m     B        A/C#
 A clearer future, morning, evening, nights with you.



Bass


Tuning
spaceyhippie D A D G B E
Yes
And You and I
bass tab
drop D


  1.13     verse 1    
  2.15     verse 2     6 : 8                 t:80
|------------------------|------------------------|
|------------------------|------------------------|*
|------------------------|------------------------|*
|0-0-0-0-----0-0---------|------------------------|....

- or mute 12th fret harmonic


  2.52     bridge      4 : 4
|--------------------------------|12--11--10----------------------|
|----------------------------10--|--------------------------------|
|--------10------10------10------|------------12------121212\-----|
|8---8-------8-------8-----------|--------------------------------|

|--------------------------------|------------------------9---9---|
|----------------------------10--|12--11--10\---------------------|
|--------10------10------10------|------------7-------------7-----|
|8---8-------8-------8-----------|--------------------------------|

|--------------------------------|--------------------------------|
|--------------------------------|--------------------------------|
|--------10------10-----/12--10--|--------7-----------------------|
|8---7/8-----8-------8-----------|----8-------8-------10--11--12--|

|--------------------------------|--------------------------------|-
|------------12--12--------------|--------------------------------|--
|---5/-9/-/14--.-----14--1210----|5-------------------------------|0--
|0---------------------------12--|---.4---.---5-------6-----------|----

  3.22    chorus 1

  3.47    solo 1     t:60      4 : 4
|--------------------------------|--------------------------------|-----------------------------|
|--------------9-----------------|--------------------------------|-----------------------------|
|5---------------10----.-10------|8-------8-----9-10----.-9-------|8----------------------------|
|--------------------------------|--------------------------------|----------------10-----------|

|--------------------------------|--------------------------------|-----------------------------|
|--------------------------------|--------------------------------|-----------------------------|
|12----------10\-5-------5-------|5-----4-3-----4-5---------------|----------------10-----------|
|--------------------------------|------------------------7-------|10---------------------------|

|--------------------------------|--------------------------------|-----------------------------|
|--------------------------------|--------------------------------|9----------------------------|
|7---------------5---------------|4---------------3---------------|----------------5------------|
|--------------------------------|--------------------------------|-----------------------------|

|--------------------------------|--------------------------------|-----------------------------|
|--------------------------------|--------------------------------|-----------------------------|
|----------^-12------------------|-----^----------12------11.-11.-|----------------5------------|
|9-------1214----14------141414--|14----13-12---------------------|12------141312\--------------|

  4.37
|--------------------------------|--------------------------------|-----------------------------|
|--------------------------------|--------------------------------|-----------------------------|
|7-------------------------------|14^-^^----------14------------^-|-----^------------------5----|
|----------------16^-^^--12^-^^--|--------11121314------------1413|12\-7-8-9--------------------|

|------------------------|------------------------|
|------------------------|----9-9-9---------------|
|7---------------9-------|------------------------|
|------------------------|9---------------12\-----|

  4.56   refrain 1     6 : 8
|------------------------|------------------------|------------------------|---------------------|
|------------------------|------------------------|------------------------|---------------------|
|----------------7-------|9-----------------------|------------5---7---9---|----9---9------------|
|9-----------------------|----------------7-------|9-----------------------|------------4-5-7----|

|------------------------|------------------------|------------------------|---------------------|
|------------------------|------------------------|------------------------|---------------------|
|----------------7-------|9-----------------------|7---------------9\------|2---------------5----|
|9-----------.-.---------|----------------9-------|------------------------|---------------------|

  5.20
|------------------------|------------------------|------------------------|---------------------|
|------------------------|----------------9-------|11------------1211----9-|--------12-----------|
|7-----------7-----------|------------------------|--------11--------------|12----9--------------|
|--------9-------8-------|7-------5---------------|------------------------|---------------------|

|------------------------|------------------------|------------------------|------------------|
|------------------------|------------------------|------------------------|------------------|
|14------14------12------|--------11------11------|10----------------------|------------------|
|------------------------|------------------------|------------------------|------------------|


  5.46   guitar re-intro
  6.15   pre-verse 3
  6.33   verse 3


  7.08   verse 4                             t:90
|--------------------16--|14----------------------|
|--------9---11----------|----14------------------|
|5-7-9-11----------------|--------16-----16^------|
|------------------------|--------------------17--|

|------------------------|------------------------|------------------------|---------------------|
|------------------------|------------------------|------------------------|---------------------|
|------------------------|------------------------|11--------------12------|------------------^--|
|14--------------16\-----|9^^-------------12^^----|------------------------|14-------------121412|

|------------------------|------------------------|------------------------|---------------------|
|------------------------|------------------------|------------------------|---------------------|
|----------------10------|------------------------|11--------------12------|---------------------|
|14----------------------|9^^-------------1212----|------------------------|14--------------1212-|

  7.31
|------------------------|------------------------|------------------------|---------------------|
|-------------^--9---11--|--------------------11--|-------------^--9-------|----------------11---|
|------------9-11--------|11--------------9-------|------------9-11----9---|11----------9--------|
|11----------------------|------------------------|11----------------------|---------------------|

|------------------------|------------------------|
|------------------------|------------------------|
|------------------------|----------------12------|
|12--------------7-------|9---9-------------------|

  7.45   solo 2
|------------------------|------------------------|.-----------------------|---------------------|
|------------------------|------------------------|------------------------|---------------------|
|11----------------^-11--|11--------------9-------|----7-----------9-------|11--------------9----|
|----------------1214----|------------------------|------------------------|---------------------|

|------------------------|------------------------|------------------------|---------------------|
|------------------------|------------------------|------------------------|---------------------|
|----------------9-------|7---------------9-------|8-7-6-----------9-------|11-------------9-8-7\|
|12----------------------|------------------------|------------------------|---------------------|

|------------------------|------------------------|------------------------|-------^-------------|
|------------------------|------------------------|----------------18------|18--18.-18.-.-.-16\--|
|4---4-----------9-------|7---7-----------9-------|8-7-6---------------1616|---------------------|
|------------------------|------------------------|------------------------|---------------------|

                                                                            6:8   7:8
 8.13          |------------|------------|:-----------|------------|------------|----------:-:-|
 refrain 2     |------------|------------|------------|------------|------------|--------------|
               |7-------9---|11------9---|--7-----11--|11--11--9\--|4-------7---|6-------9-----|
               |------------|------------|------------|------------|------------|--------------|

  8.28     7:8   6:8               3:8                  t:\\...                  4:8      t:60
|--------------|------------|------|:-----|------|------|:-----|------|------|----:---|----:---|
|----------4---|------------|------|------|------|------|------|------|------|9-------|--------|
|--------------|2-------4---|7-----|------|10----|9-----|------|12----|10----|--------|--------|
|2-------------|------------|------|------|------|------|------|------|------|-------.|.-------|

  8.48           4:8
|----:---|--------|:-------|:-----:-|----:---|:--;----|
|--------|--------|----7---|--------|9-------|----.---|
|--------|10--9---|--------|--10----|--------|--------|
|2-------|--------|--------|--------|--------|--------|

  9.02
|----:---|--------|:-----:-|.-..---.|--------|--------|
|--------|--------|----7---|--------|9-------|------
|--------|10--9---|--------|--10----|--------|----
|2-------|--------|--------|--------|--------|--

  9.26  end chorus
  


standard tuning (EADG)
Suggest correction
Give kudos to tab author, rate the tab!
1 2 3 4 5
comments
print report bad tab
guest
You may want to rate the tab now too:
select rating
Wanna post a correction for this tab? Suggest correction