Oops, an error
Loading. Please wait.

And You And I Tab

version 1
version 1

Whole song

Interactive

by Yes
67,311 views 105 this week
8 commentsread comments
1 2 3 4 5
x 16
add to favorites
launch autoscroll
font size
0
reset
how to read this tab
guitar tuner
Autoscroll
slow
fast
+/-
esc
set tempo
stop
Help us to improve Ultimate-Guitar.com Take our survey!
×
Author
Yes
And You and I

This is one of my favorite songs to play and i think its mostlycorrect i hope you all 
it.

e|------------------------------------------------5-----7--12--|-----12-|
B|------------------------------------------7--------------12--|--7-----|
G|---------------------------------7-----------------------12--|--7-----|
D|------------------------7-----5--------9-----------------12--|--7-----|
A|---7--------7--------5-----------------------------------12--|--------|
E|---------------7-----------------------------------------12--|--------|

e|---|--------------------------------|----------------------------12--|----|
B|---|----------12--------------------|-----------------12-------------|----|
G|---|------12------------------------|------12----------------12------|----|
D|---|--12------------------------12--|-------------12-----------------|----|
A|---|------------------------12------|--12----------------------------|----|
E|---|--------------------12----------|--------------------------------|----|

e|------------------------------------------5--7--|-------------------------|
B|------------------------------------7-----------|-----5--7-----------7----|
G|------------------------------5--7--------------|--5--------------5-------|
D|---------------------5--7-----------------------|--------------5----------|
A|------------5--7--------------------------------|-------------------------|
E|---5--7-----------------------------------------|-------------------------|


                                   end of harmonics
e|---|--------------|--------7--|-----------------------------------||------|
B|---|--------------|-----7-----|-----------------------------------||------|
G|---|--------------|--5--------|-----------------------------------||------|
D|---|--7-----------|-----------|-----------------------------------||------|
A|---|-----7-----7--|-----------|-----------------------------------||------|
E|---|--------5-----|-----------|-----------------------------------||------|


     0:31
e|------------------5--------------|--------------5-----------|-------------|
B|---------7-----0-----------------|-----7-----0--------------|-----7-------|
G|------0--------------------------|--0-----------------------|--0----------|
D|---------------------------------|-----------------------5--|-------------|
A|------------------------------9--|--------------------0-----|-------------|
E|---------------------------0-----|--------------------------|-------------|

e|------5-----------|--------------5----------------|--------------5--------|
B|---0--------------|-----7-----0-------------------|-----7-----0-----------|
G|---------------9--|--0----------------------------|--0--------------------|
D|------------0-----|-------------------------------|-----------------------|
A|------------------|--------------------9\5-----5--|-----------------------|
E|------------------|-----------------0-------------|-----------------------|

e|--------------------|--------------5-----------||-------------------------|
B|--------------------|-----7-----0--------------||-------------------------|
G|--------------------|--0--------------------9--||-------------------------|
D|------5\4--4--------|--------------------0-----||-------------------------|
A|---0-------------0--|--------------------------||-------------------------|
E|--------------------|--------------------------||-------------------------|


e|---2-2-2-2-2--x--3--x--5-5-5-5-5--------------------------------------------------|
B|---3-3-3-3-3--x--5--x--7-7-7-7-7---play over and over-----------------------------|
G|---2-2-2-2-2--x--4--x--6-6-6-6-6------again through our the song------------------|
D|---x-x-x-x-x--x--x--x--x-x-x-x-x--------------------------------------------------|
A|---x-x-x-x-x--x--x--x--x-x-x-x-x--------------------------------------------------|
E|---x-x-x-x-x--x--x--x--x-x-x-x-x--------------------------------------------------|


************************************

| x  Dead note
| \  Slide down

************************************
Suggest correction
comments
print report bad tab
8 comments total. Showing first comments.
0 reply
J.Immer 10 Jan 20, 2005 12:00 AM

Nice job on the intro, the entire song is not fleshed out, but considering the quality of stuff I have seen on this site, I am glad that this was submitted. Of course, the 'SCREAMING' pedal steel has to be seen (live) to truly appreciate, but at least this tab teases with the all important intro (and middle section, basically) of this beautiful YesSong.

0 reply
klevon 10 Sep 18, 2005 12:00 AM

The harmonics on the intro sound great. I was thinking that the D major chord strum sounds a little different on the second and third chord strums. The open D is consistent throughout all the chords, but the second chord sounds to me like 334 and then 556, on the 1st, 2nd, and 3rd strings.

0 reply
hoytdwow 10 Apr 30, 2009 01:29 PM

this is almost completely wrong. Go here: http://www.youtube.com/watch?v=gE8YVH46RCw

guest
You may want to rate the tab now too:
select rating
Wanna post a correction for this tab? Suggest correction