Oops, an error
Loading. Please wait.

Heart Of The Sunrise Bass Tab

version 1
version 1

Whole song

Interactive

by Yes
37,939 views 54 this week
5 commentsread comments
1 2 3 4 5
excellent!
x 22
add to favorites
launch autoscroll
font size
0
reset
guitar tuner
Autoscroll
slow
fast
+/-
esc
set tempo
stop
Help us to improve Ultimate-Guitar.com Take our survey!
×
Hey there,

Here's some bass tab for ya.  It's "Heart of the Sunrise", by Yes.

scott

Notes:
 - During the chorus ("sharp, distant ..."), I think there are two bass
   parts (but the second one may be piano); one playing the part I've
   transcribed and one playing arpeggios.  If you want to hear the
   arpeggios, they're mixed on the right channel and the other part is
   on the left.
 - Tab was created with a modified version of Mario's Bass Tab Creator
 - 'h' = hammeron, 'p' = pulloff, notes with '^' between them are triplets
 - If you find any mistakes, please let me know!


HEART OF THE SUNRISE
Yes

    fast                                    keyboard
G|--------------------------|-------------|------------|-------------------------|
D|*-------------------------|-----------4-|-----------*|-------------------------|
A|*-------------------------|-2-3-4-5-6---|-----------*|-------------------------|
E|--2h4-4-4-4-4-2h4-4-4-4-4-|-------------|------------|-------------------------|

G|-11h13-13-13-13-13-11h13-13-13-13-13-|------------------|-----------------------|
D|-------------------------------------|-13-12-11-10-9----|-----------------------|
A|-------------------------------------|---------------11-|-----------------------|
E|-------------------------------------|------------------|-----------------------|

G|-----------------------------------|---------------|-------------------------|--|
D|-----------------------------------|---------------|-------------------------|--|
A|-9h11-11-11-11-11-9-11-11-11-11-11-|---------------|-------------------------|--|
E|-----------------------------------|-11-10-9-8-7-4-|-2h4-4-4-4-4-2-4-4-4-4-4-|--|

G|-------------|-------------------------|---------------11-|---------------------|
D|-----------4-|-4h6-6-6-6-6-4h6-6-6-6-6-|-9-10-11-12-13----|---------------------|
A|-2-3-4-5-6---|-------------------------|------------------|---------------------|
E|-------------|-------------------------|------------------|---------------------|

G|-----------------------------------|---------------11-|-13\X---6-4---------|----|
D|-----------------------------------|-9-10-11-12-13----|--------------------|----|
A|-9h11-11-11-11-11-9h11-11-11-11-11-|------------------|------6-------------|----|
E|-----------------------------------|------------------|------------6-4-2-0-|----|


  slower
G|-------4-----------------4-|-------------------|-------------|-------4-|--------|
D|---4h6---4h6-6---6---4h6---|-4h6-6---6---4h6---|-----4-6---6-|---4h6---|--------|
A|-6-----------------6-------|-----------6-----2-|-4-6---------|-6-------|--------|
E|---------------4-----------|-------4-----------|---------4---|---------|--------|

G|-----------------4-|-----------------4-|-------------------|-------------|------|
D|-4h6-6---6---4h6---|-4h6-6---6---4h6---|-4h6-6---6---4h6---|-----4h6---6-|------|
A|-----------6-------|-----------6-------|-----------6-----2-|-4-6---------|------|
E|-------4-----------|-------4-----------|-------4-----------|---------4---|------|


                                            1:00
G|-----------|-------3-|-----------------4-|-----------|-------4-|-----------|----|
D|---4h6---6-|---4h6---|-4h6-6---6---4-6---|-6^4-----6-|---4-6---|-6^4-----6-|----|
A|-6---------|-6-------|-----------6-------|----^6-----|-6-------|----^6-----|----|
E|-------4---|---------|-------4-----------|-------4---|---------|-------4---|----|

G|---------|---------|---------4-|-----------|-------3-|-----------|-------4-|----|
D|---4h6---|-----4-6-|-----4h6---|-4h6-6---6-|---4-6---|-4h6-6---6-|---4h6---|----|
A|-6-----2-|-4-6-----|---6-------|-----------|-6-------|-----------|-6-------|----|
E|---------|---------|-4---------|-------4---|---------|-------4---|---------|----|

G|-----------|---------|-------------|-------4-|---------|-------4-|-----------|--|
D|-4h6-6---6-|---4-6---|-----4-6---6-|---4-6---|-4h6---6-|---4h6---|-4h6-6---6-|--|
A|-----------|-6-----2-|-4-6---------|-6-------|---------|-6-------|-----------|--|
E|-------4---|---------|---------4---|---------|-----4---|---------|-------4---|--|


                        1:34
G|-------3-|-----------|-------4-|-----------|-------4-|-----------|---------|----|
D|---4h6---|-6^4-----6-|---4-6---|-6^4-----6-|---4-6---|-6^4-----6-|---------|----|
A|-6-------|----^6-----|-6-------|----^6-----|-6-------|----^6-----|-6-5-4-2-|----|
E|---------|-------4---|---------|-------4---|---------|-------4---|---------|----|


                                            1:50
G|-------------|-------4-|-------|-------3-|---------|-------4-|-----------|------|
D|-----4h6---6-|---4h6---|-6---6-|---4h6---|-6-6---6-|---4h6---|-4h6-6---6-|------|
A|-4-6---------|-6-------|-------|-6-------|---------|-6-------|-----------|------|
E|---------4---|---------|---4---|---------|-----4---|---------|-------4---|------|

G|---------|-------------|-------4-|-----------|-------4-|-3-3-3-|---------|------|
D|---------|-----4-6---6-|---4h6---|-4h6-6---6-|---4h6---|-------|---------|------|
A|-6-5-4-2-|-4-6---------|-6-------|-----------|-6-------|-------|---------|------|
E|---------|---------4---|---------|-------4---|---------|-------|-4-4-4-4-|------|


            fast 2:05
G|---------|-------------------------|-------------|-------------------------|----|
D|---------|-------------------------|-----------4-|-4h6-6-6-6-6-4h6-6-6-6-6-|----|
A|---------|-------------------------|-2-3-4-5-6---|-------------------------|----|
E|-4-4-4-4-|-2h4-4-4-4-4-2h4-4-4-4-4-|-------------|-------------------------|----|

G|-------------|-------------------------|-------------|-------------------------|
D|-------------|-------------------------|-----------4-|-4h6-6-6-6-6-4h6-6-6-6-6-|
A|-6-5-4-3-2---|-------------------------|-2-3-4-5-6---|-------------------------|
E|-----------4-|-2h4-4-4-4-4-2h4-4-4-4-4-|-------------|-------------------------|

G|---------------11-|-11h13-13-13-13-13-11h13-13-13-13-13-|------------------|----|
D|-9-10-11-12-13----|-------------------------------------|-13-12-11-10-9----|----|
A|------------------|-------------------------------------|---------------11-|----|
E|------------------|-------------------------------------|------------------|----|


                                                         2:20
G|-----------------------------------|---------------11-|-13---------|-------|----|
D|-----------------------------------|-9-10-11-12-13----|------------|-------|----|
A|-9h11-11-11-11-11-9h11-11-11-11-11-|------------------|----6-4-2---|-------|----|
E|-----------------------------------|------------------|----------6-|-4-2-0-|----|

G|---11h13-13-13-13-13-11h13-13-13-13-13------------------|-----------------------|
D|---------------------------------------13-12-11-10-9----|-----------------------|
A|-----------------------------------------------------11-|-----------------------|
E|-2------------------------------------------------------|-----------------------|

G|-----------------------------------|---------------|-------------------------|--|
D|-----------------------------------|---------------|-------------------------|--|
A|-9h11-11-11-11-11-9h11-11-11-11-11-|---------------|-------------------------|--|
E|-----------------------------------|-11-10-9-8-7-4-|-2h4-4-4-4-4-2h4-4-4-4-4-|--|

G|-------------|-------------------------|---------------11-|---------------------|
D|-----------4-|-4h6-6-6-6-6-4h6-6-6-6-6-|-9-10-11-12-13----|---------------------|
A|-2-3-4-5-6---|-------------------------|------------------|---------------------|
E|-------------|-------------------------|------------------|---------------------|

G|-11h13-13-13-13-13-11h13-13-13-13-13-|------------------|-----------------------|
D|-------------------------------------|-13-12-11-10-9----|-----------------------|
A|-------------------------------------|---------------11-|-----------------------|
E|-------------------------------------|------------------|-----------------------|


                                                         2:42
G|-----------------------------------|---------------11-|-13---------|-------|----|
D|-----------------------------------|-9-10-11-12-13----|------------|-------|----|
A|-9h11-11-11-11-11-9h11-11-11-11-11-|------------------|----6-4-2---|-------|----|
E|-----------------------------------|------------------|----------6-|-4-2-0-|----|

G|-------------------------------------|---------------11-|-----------------------|
D|-------------------------------------|-9-10-11-12-13----|-----------------------|
A|---9h11-11-11-11-11-9h11-11-11-11-11-|------------------|-----------------------|
E|-2-----------------------------------|------------------|-----------------------|

G|-11h13-13-13-13-13-11h13-13-13-13-13------------------|-------------------------|
D|-------------------------------------13-12-11-10-9----|-------------------------|
A|---------------------------------------------------11-|-------------------------|
E|------------------------------------------------------|-------------------------|

G|-------------------------------------------------|-------------------------|----|
D|-------------------------------------------------|-------------------------|----|
A|-9h11-11-11-11-11-9h11-11-11-11-11---------------|-------------------------|----|
E|-----------------------------------11-10-9-8-7-4-|-2h4-4-4-4-4-2h4-4-4-4-4-|----|

G|-------------|-------------------------|-------------|-------------------------|
D|-----------4-|-4h6-6-6-6-6-4h6-6-6-6-6-|-------------|-------------------------|
A|-2-3-4-5-6---|-------------------------|-6-5-4-3-2---|-------------------------|
E|-------------|-------------------------|-----------4-|-2h4-4-4-4-4-2h4-4-4-4-4-|

G|-------------|---------------------------------------11-|-----------------------|
D|-----------4-|-4h6-6-6-6-6-4h6-6-6-6-6-9-10-11-12-13----|-----------------------|
A|-2-3-4-5-6---|------------------------------------------|-----------------------|
E|-------------|------------------------------------------|-----------------------|

G|--11h13-13-13-13-13-11h13-13-13-13-13-|-16-17-18-19-20--|----------------------|
D|*-------------------------------------|----------------*|----------------------|
A|*-------------------------------------|----------------*|----------------------|
E|--------------------------------------|-----------------|----------------------|

G|-11h13-13-13-13-13-11h13-13-13-13-13-|------------------|-----------------------|
D|-------------------------------------|-13-12-11-10-9----|-----------------------|
A|-------------------------------------|---------------11-|-----------------------|
E|-------------------------------------|------------------|-----------------------|


                                                      3:18
G|-----------------------------------|---------------|-------------|-------|------|
D|-----------------------------------|---------------|-------------|-------|------|
A|-9h11-11-11-11-11-9h11-11-11-11-11-|---------------|---6-4-2-0---|-------|------|
E|-----------------------------------|-11-10-9-8-7-4-|-4---------6-|-4-2-0-|------|


                      verse
G|-----------|-------|---------|-13-10-----------|-----------8-10-|-8h10p8----|---|
D|-----------|-------|---------|-------11-8-11---|------8-11------|--------10-|---|
A|-9H11-11---|-------|---------|---------------8-|-9-11-----------|-----------|---|
E|---------7-|-4-----|---------|-----------------|----------------|-----------|---|

G|-------8-6h8p6---|------10-18p17----|----------|---------|-------------|--------|
D|-10-11---------8-|-8-11----------18-|-11/13----|-8-------|-------------|--------|
A|-----------------|------------------|-------11-|---8-----|-------4-6-8-|--------|
E|-----------------|------------------|----------|-----9-6-|-2-4-6-------|--------|


                                                     lost in
G|---------|---------------|----------------|-------|-------|---------|-----|-----|
D|---------|---------------|-------11p10----|-------|-------|---------|-----|-----|
A|-6h8p6---|-----6-4h6p4---|-----8-------11-|-4h6---|-------|---------|-----|-----|
E|-------8-|-8-9---------6-|-6-9------------|-----4-|-4-6-8-|-9-8-6-4-|-2-0-|-----|

G|---------4-|-------------4-|-------4-4-4-|----------------------------14-|------|
D|-----------|-4-2-1---------|-------------|----------------------11-14----|------|
A|-6-4-2-0---|-------4-2-0---|-4-3-2-------|---2-----2-----4-7-12----------|------|
E|-----------|---------------|-------------|-0---4-0---4-5-----------------|------|

G|-------------------|---------|---------------------|----------------------------|
D|-14-12-14-12-------|-2-------|-----------4-4h6-4---|----------------------------|
A|-------------14-12-|---4-2---|-----2-4-6---------6-|----------------------------|
E|-------------------|-------0-|-2-4-----------------|----------------------------|

G|--3-------------------------------|------------------------------|--------|----|
D|*---3-----------------1-3-1h3p1---|---------------------11h10----|-------*|----|
A|*-----4-1-4-------1-4-----------3-|-3-4-6-4h6p4-------8-------11-|-4h6---*|----|
E|------------1-2-4-----------------|-------------6-6-9------------|-----4--|----|


  sharp   distant how can...
G|--------|-------|--------------|---------------|-------------4-|------------|--|
D|*-------|-------|-------------*|---------------|-----1---------|*-4-2-1-----|--|
A|*-------|-6-----|-6-6-4-4-----*|---------------|-------4-2-0---|*-------4-2-|--|
E|--6-----|-------|---------4-4--|-4-6-8-9-8-6-4-|-2-0-----------|------------|--|


                                         6:40
G|---4--|-------4-4-4-|---------|-------|-------------|----------------14-|-------|
D|-----*|-------------|---------|-------|-------------|----------11-14----|-------|
A|-0---*|-4-3-2-------|-0h2-----|-0-----|-----2-----2-|---4-7-12----------|-------|
E|------|-------------|---------|-------|-0-4---4-0---|-5-----------------|-------|


                                  faster
G|-------------------|-----------|---------|-----------------|--------------------|
D|-14-12-14-12-------|-2---------|---------|*---------------*|--------------------|
A|-------------14-12-|---4-2-----|-----2-4-|*-6-6-6-6-6-6-6-*|--------------------|
E|-------------------|-------0---|-2-4-----|-----------------|--------------------|
                                                          4

  fast (7:00)
G|-------------------------|-------------|-------------------------|-------------|
D|-------------------------|-----------4-|-4h6-6-6-6-6-4h6-6-6-6-6-|-------------|
A|-------------------------|-2-3-4-5-6---|-------------------------|-6-5-4-3-2---|
E|-2h4-4-4-4-4-2h4-4-4-4-4-|-------------|-------------------------|-----------4-|

G|-------------------------|-------------|-------------------------|--------------|
D|-------------------------|-----------4-|-4h6-6-6-6-6-4h6-6-6-6-6-|--------------|
A|-------------------------|-2-3-4-5-6---|-------------------------|--------------|
E|-2h4-4-4-4-4-2h4-4-4-4-4-|-------------|-------------------------|--------------|


                                                                 (4x)
G|---------------11-|--------------------13-|-----------------------|-------------|
D|-9-10-11-12-13----|*----------------------|----------------------*|-------------|
A|------------------|*----------13^13^13----|----------13^13^13----*|-------------|
E|------------------|--11^11^11-------------|-11^11^11----------11--|-------------|


  7:18
G|-----------------------------------|---------------|-------------------------|--|
D|-----------------------------------|---------------|-------------------------|--|
A|-9h11-11-11-11-11-9h11-11-11-11-11-|---------------|-------------------------|--|
E|-----------------------------------|-11-10-9-8-7-4-|-2h4-4-4-4-4-2h4-4-4-4-4-|--|

G|-------------|-------------------------|-------------|-------------------------|
D|-----------4-|-4h6-6-6-6-6-4h6-6-6-6-6-|-------------|-------------------------|
A|-2-3-4-5-6---|-------------------------|-6-5-4-3-2---|-------------------------|
E|-------------|-------------------------|-----------4-|-2h4-4-4-4-4-2h4-4-4-4-4-|

G|-------------|--------------8-|----------------|--------------------------------|
D|-----------4-|*-------8^8^8---|-------8^8^8---*|--------------------------------|
A|-2-3-4-5-6---|*-6^6^6---------|-6^6^6-------6-*|--------------------------------|
E|-------------|----------------|----------------|--------------------------------|

G|-11h13-13-13-13-13-11h13-13-13-13-13-|------------------|-----------------------|
D|-------------------------------------|-13-12-11-10-9----|-----------------------|
A|-------------------------------------|---------------11-|-----------------------|
E|-------------------------------------|------------------|-----------------------|


                                                                              (4x)
G|-----------------------------------|---------------11-|-----------15^15^15-----|
D|-----------------------------------|-9-10-11-12-13----|*-13^13^13----------13-*|
A|-9h11-11-11-11-11-9h11-11-11-11-11-|------------------|*----------------------*|
E|-----------------------------------|------------------|------------------------|

G|-----------------------------------|---------------11-|-------------------------|
D|-----------------------------------|-9-10-11-12-13----|-------------------------|
A|-9h11-11-11-11-11-9h11-11-11-11-11-|------------------|-------------------------|
E|-----------------------------------|------------------|-------------------------|


                                                            7:47         (4x)
G|-11h13-13-13-13-13-11h13-13-13-13-13-|------------------|-----------------|-----|
D|-------------------------------------|-13-12-11-10-9----|*-----------7h9-*|-----|
A|-------------------------------------|---------------11-|*-9-7-6---------*|-----|
E|-------------------------------------|------------------|--------9-7------|-----|

G|---------------|-------------|----------|----------11-|------|---1h3-------|----|
D|---------------|-------------|-------13-|----11-13----|------|-3-----------|----|
A|-9-8-6-------6-|-9-8-6-------|----------|-13----------|-13\1-|-------------|----|
E|-------9-8-6---|-------9-8-6/|-11-11----|-------------|------|-------2-----|----|

G|---------------------------|-------------|----------|----------11-|-----1h3-|---|
D|-4/6-6---6\X---------------|-------------|-------13-|----11-13----|---3-----|---|
A|-------------9-8-6-------6-|-9-8-6-------|----------|-13----------|-1-------|---|
E|-------4-----------9-8-6---|-------9-8-6/|-11-11----|-------------|---------|---|


                                       offbeat         rest
G|------------------|-----------------|---------------|------|-----------|--------|
D|------4-6-6-----6-|*---------------*|-----------7h9-|------|-----------|--------|
A|------------------|*-9-8-6-------6-*|-9-7-6---------|------|-9-8-6-----|--------|
E|-2----------4-4---|--------9-8-6----|-------9-7-----|------|-------9-8-|--------|


                  rest
G|---------------|------|-------------|-------------------------|-----------6-|---|
D|-13-11-9-------|------|-------------|-------------------------|-4-5-6-7-8---|---|
A|---------13-11-|------|-9-8-6-------|-4h6-6-6-6-6-4h6-6-6-6-6-|-------------|---|
E|---------------|------|-------9-8-6-|-------------------------|-------------|---|

G|-6h8-8-8-8-8-6h8-8-8-8-8-|-------------|-----------------|-----------8/10-|-----|
D|-------------------------|-8-7-6-5-4---|*---------------*|------8-11------|-----|
A|-------------------------|-----------6-|*-9-8-6-------6-*|-9-11-----------|-----|
E|-------------------------|-------------|--------9-8-6----|----------------|-----|


          9:28
G|-------|-----------|-----------2-4-|-2h4p2-----|---------------|----------------|
D|-------|-2---------|-------2-5-----|-------4-4-|-4-5-7-5h7p5---|----------------|
A|-2-2-2-|---2-------|-2-3-5---------|-----------|-------------7-|----------------|
E|-------|-----3-0-3-|---------------|-----------|---------------|----------------|


                               sharp     distant
G|--------12p11----|----------|---------|-------0/4-|-2h4p2-----|-------|---------|
D|------9-------12-|-/X-------|-2-------|-----2-----|-------4-4-|-4-5-7-|---------|
A|-7-10------------|----12----|---2-----|-3-5-------|-----------|-------|---------|
E|-----------------|-------10-|-----3-0-|-----------|-----------|-------|---------|


                                         sharp    distant
G|---------|--------12p11----|----------|--------|--------|-------------------|---|
D|-5h7p5---|------9-------12-|-/X-------|--------|--------|-------------------|---|
A|-------7-|-7-10------------|----12----|--------|-0------|-------------------|---|
E|---------|-----------------|-------10-|-0------|--------|-5-5-3-3-5-5-5-5-5-|---|


                fast 10:24
G|-------------|-------------------------|-------------|-------------------------|
D|-------3-3-3-|-6h8-8-8-8-8-6h8-8-8-8-8-|-------------|-------------------------|
A|-------------|-------------------------|-8-7-6-5-4---|-------------------------|
E|-3-2-1-------|-------------------------|-----------6-|-4h6-6-6-6-6-4h6-6-6-6-6-|

G|-------------|-------------------------|----------------13-||-------------------|
D|-----------6-|-6h8-8-8-8-8-6h8-8-8-8-8-|-11-12-13-14-15----||-------------------|
A|-4-5-6-7-8---|-------------------------|-------------------||-------------------|
E|-------------|-------------------------|-------------------||-------------------|



************************************

| h  Hammer-on
| p  Pull-off
| /  Slide up
| \  Slide down

************************************
Suggest correction
comments
print report bad tab
5 comments total. Showing first comments. show 1 bad comment
+11 reply
Hempknight 15 wrote on April 12 2004, 12:00 am

this is an amazing tab, shame there aren't more people like you cos this must have taken a hell of a long time to do. im pretty sure that most of it is right cant see any mistakes. only thing is i think he might use a pedal abit, not sure though.

+8 reply
abnormality 31 wrote on May 20 2007, 09:25 pm

you are a wonderful wonderful person, whoever you are

guest
You may want to rate the tab now too:
select rating
Wanna post a correction for this tab? Suggest correction