Oops, an error
Loading. Please wait.

Ive Seen All Good People Bass Tab

version 1
version 1

Whole song

Interactive

by Yes
6,256 views 1 this week
no commentswrite comment
1 2 3 4 5
2 more votes to show rating
add to favorites
launch autoscroll
font size
0
reset
guitar tuner
Autoscroll
slow
fast
+/-
esc
set tempo
stop
Help us to improve Ultimate-Guitar.com Take our survey!
×
Author
emad [a] 10,448
  I'VE SEEN ALL GOOD PEOPLE (ALL GOOD PEOPLE)  - Yes 
                                
(From the 1971 Album THE YES ALBUM)

Words and Music by Jon Anderson
Transcribed by prusche@hotmail.com

Standard tuning

 Intro
  Moderate Rock Q=152(8=s8)
 4/4
  Gtr I
  E E E E +E  E a E E   +E  E E E +E  E E E
|---------------------|---------------------|
|-------------------5-|-(5)---------------5-|
|-----5-4-(4)-4-5s7---|-----7-5-4-(4)-5-7---|
|-5-5-----------------|---------------------|


  +E  E E E +E  E E E   +E  E E E +E  E E E
|---------------------|---------------------|
|-(5)---------------5-|-(5)-----------------|
|-----7-5-4-(4)-5-7---|-----7-5-4-(4)---7-6-|
|---------------------|---------------5-----|


  +E  E E E +E  E E E   +E  E E E +E  E E E
|---------------------|---------------------|
|---------7-(7)-------|---------7-(7)-------|
|-(6)---9-------9-7-6-|-(6)---9-------9-7-6-|
|-----7---------------|-----7---------------|


  +E  E E E +E  E E E   +E  E E E +E  E E E
|---------------------|----------------------||
|---------7-(7)-------|---------7-(7)---7-9--||
|-(6)---9-------9-7-6-|-(6)---9-------9------||
|-----7---------------|-----7----------------||


 Chorus
  E E E E +E  E E E   E E E E E E E E   E E E E E E E E
|-------------------|-----------------|-----------------|
|-------------------|-----------------|-----------------|
|-------7-(7)-7-7-7s|=5-5-5-5-5-5-5-5-|-3-3-------------|
|---7-9-------------|-----------------|-----0-0-1-1-2-2-|


  E E E E E E E E   E E E E +E  E a E E   +E  E E E +E  E a E E
|-----------------|---------------------|-----------------------|
|-----------------|-------------------5-|-(5)-------------------|
|-----------------|-----5-4-(4)-4-5s7---|-----7-5-4-(4)-5-5s7-6-|
|-3-3-3-3-3-3-3-3-|-5-5-----------------|-----------------------|


  +E  E a E E +E  E E E   +E  E a E E +E  E  E E
|-----------------------|------------------------|
|-----------7-(7)-------|-----------7-(7)------9-|
|-(6)---7s9-------9-7-6-|-(6)---7s9-------9s11---|
|-----7-----------------|-----7------------------|


                                      |-3-|
  E E E E +E  E E E   E E a E E +E  E E E E
|-------------------|------------------------|
|-------------------|---------7-(7)---7h9-7--|
|-------7-(7)-7-7-7-|-5-5-7s9-------9--------|
|-0-7-9-------------|------------------------|


  E E E E E E E E   E E E E E E E E
|-----------------|-----------------|
|-----------------|-----------------|
|-3-3-3-3-3-3-3-3-|-2-2-----2-2-----|
|-----------------|-----3-3-----3-3-|


  E E E E +E  E a E E   +E  E E E +E  E a E E
|---------------------|------------------------|
|-------------------5-|-(5)--------------------|
|-----5-4-(4)-4-5s7---|-----7-5-4-(4)---5s7-6--|
|-5-5-----------------|---------------5--------|


  +E  E a E E +E  E E E   +E  E a E E +E   E E E
|-----------------------|------------------------|
|-----------7-(7)-------|-----------7-(7)s19-----|
|-(6)---7s9-------9-7-6-|-(6)---7s9--------------|
|-----7-----------------|-----7--------------0-3-|


  +E  E E E +E  E a E E   +E  E E E +E  E a E E
|-----------------------|------------------------|
|---------------------5-|-(5)--------------------|
|-------5-4-(4)-4-5s7---|-----7-5-4-(4)---5s7-6--|
|-(3)-3-----------------|---------------5--------|


  +E  E a E E +E  E E E   +E  E a E E +E  E E E
|-----------------------|-----------------------||
|-----------7-(7)-------|-----------7-(7)---7-9-||
|-(6)---7s9-------9-7-6-|-(6)---7s9-------9-----||
|-----7-----------------|-----7-----------------||


  E E E E +E  E E E   E E E E E E E E
|-------------------|------------------|
|-------------------|------------------|
|---2-4-------------|------------------|
|-------0-(0)-0-0-0-|-2-2-2-2-2-2-2-2--|


  E E E E E E E E   E E E E E Q  E
|-----------------|----------------|
|-----------------|----------------|
|-----------------|---2---5---2--4-|
|-3-3-3-3-3-3-3-3-|-3--------------|


  E E E E E E a E E   +E  E E E +E  E a E E
|-------------------|------------------------|
|-----------------5-|-(5)-----------------5--|
|-----5-5-4-4-5s7---|-----7-5-4-(4)---5s7----|
|-5-5---------------|---------------5--------|


 2/4           4/4
  +E  E a E E   +E  E  E E +E   E  E  E
|-------------|-------------------------|
|-(5)---------|----------8-(8)----------|
|-----7-7s8-7-|-(7)-8-10-------10-12-11-|
|-------------|-------------------------|


   +E   E  a  E  E  +E   E  a  T  T  T  T  T  T  T  T
|------------------------------------------------------||
|---------------12-(12)----12s14s13s14s13s14s13s14s13--||
|-(11)-11-12s14---------14-----------------------------||
|------------------------------------------------------||


 Guitar Solo
  E E E E +E  E a E E   +E  E a E E +E  E E E
|---------------------|-----------------------|
|-------------------7-|-(7)-7---------------7-|
|-0-0-9-7-(7)-7-7s9---|-------7s9-7-(7)-7-9---|
|---------------------|-----------------------|


                                          |-3-|
  +E  E E E +E  E E E   +E  E a E E +E  E E E E
|---------------------|--------------------------|
|-(7)-7---------------|--------------------------|
|-------9-7-(7)-------|-----------7-(7)---7h9-9--|
|---------------9-7S5-|-(5)-5-7s9-------9--------|


  E E a  E E +E  E  E E   +E  E  E E +E  E  E E
|-----------------------|-----------------------|
|---------------------9-|-(9)-9---------------9-|
|-----9s11-9-(9)-9-11---|-------11-9-(9)-9-11---|
|-7-7-------------------|-----------------------|


  +E  E  E E +E   E E E   +E  E E E  E  E  E  E
|-----------------------|-----------------------|
|-(9)-9-----------------|-----------------------|
|-------11-9-(9)--------|-----------------------|
|----------------11s9-7-|-(7)-7-9-9-10-10-11-11-|


  E E E E E E E E   E E E E E E E E   E E E E E E E E   E E E E E E E E
|-----------------|-----------------|-----------------|-----6-6-7-7-8-9s==||
|-----------------|-----------------|-----6-6-7-7-8-8-|-9-9---------------||
|-----------------|-----4-4-5-5-6-6-|-7-7-------------|-------------------||
|-0-0-4-4-5-5-6-6-|-7-7-------------|-----------------|-------------------||


   E E E E +E  E E E   +E  E E E +E  E E E
|-16-----------------|---------------------|
|--------------------|---------------------|
|------------------5-|-(5)---------------5-|
|----0-5-4-(4)-5-7---|-----7-5-4-(4)-5-7---|


  +E  E E E +E  E a E E   +E  E E E +E  E Q
|-----------------------|--------------------|
|-----------------------|--------------------|
|-(5)-----------------5-|-(5)----------------|
|-----7-5-4-(4)-4-5s7---|-----7-5-4-(4)-7-0--|


  Q  Q  Q  Q    Q  Q  Q  Q    Q  Q  Q  Q    Q  Q  Q  Q
|-------------|-------------|-------------|--------------|
|-------------|-------------|-------------|--------------|
|-------------|-------------|-------------|--------------|
|----5-----5--|----5-----5--|----5-----5--|----5-----7---|


  Q  Q  Q  Q    Q  Q  Q  Q    Q  Q  Q  Q    W
|-------------|-------------|-------------|------||
|-------------|-------------|-------------|------||
|-------------|-------------|-------------|------||
|----7-----7--|----7-----7--|----7-----7--|------||


 Chorus
  E E E E +E  E E E   E E E E E E E E   E E E E E E E E   E E E E E E E E
|-------------------|-----------------|-----------------|------------------|
|-------------------|-----------------|-----------------|------------------|
|-------7-(7)-7-7-7-|-5-5-5-5-5-5-5-5-|-3-3-------------|------------------|
|---7-9-------------|-----------------|-----0-0-1-1-2-2-|-3-3-3-3-3-3-3-3--|


  E E E E +E  E a E E   +E  E E E +E  E a E E
|---------------------|-----------------------|
|-------------------5-|-(5)-------------------|
|-----5-4-(4)-4-5s7---|-----7-5-4-(4)---5s7-6-|
|-5-5-----------------|---------------5-------|


  +E  E a E E +E  E E E   E E a E E +E  E E E
|-----------------------|----------------------|
|-----------7-(7)-------|---------7-(7)---7-9--|
|-(6)---7s9-------9-7-6-|-6---7s9-------9------|
|-----7-----------------|---7------------------|


                                      |-3-|
  E E E E +E  E E E   E E a E E +E  E E E E   E E E E E E E E   W
|-------------------|-----------------------|-----------------|------|
|-------------------|---------7-(7)---7h9-7-|-----2---3---4-4-|-5----|
|-------7-(7)-7-7-5-|-5-5-7s9-------9-------|-3-3---3---3-----|------|
|---7-9-------------|-----------------------|-----------------|------|


  E E E E +E  E a E E   +E  E E E +E  E a E E
|---------------------|-----------------------|
|-------------------5-|-(5)-------------------|
|-----5-4-(4)-4-5s7---|-----7-5-4-(4)---5s7-6-|
|-5-5-----------------|---------------5-------|


                                     |3|
  +E  E a E E +E  E E E   +E  E a Q  E Q E E
|-----------------------|---------------------|
|-----------7-(7)-------|------------7--------|
|-(6)---7s9-------9-7-6-|-(6)---7s9-----------|
|-----7-----------------|-----7--------0-0-3--|


  +E  E E E +E  E a E E   +E  E E E +E  E E E
|-----------------------|---------------------|
|---------------------5-|-(5)-----------------|
|-------5-4-(4)-4-5s7---|-----7-5-4-(4)-5-7-6-|
|-(3)-3-----------------|---------------------|


  +E  E E E +E  E E E   +E  E a E E +E  E E E
|---------------------|------------------------||
|---------7-(7)-------|-----------7-(7)---7-9--||
|-(6)-7s9-------9-7-6-|-(6)---7s9-------9------||
|---------------------|-----7------------------||


  E E E E +E  E E E   E E E E E E E E   E E E E E E E E   E E E E E Q E
|-------------------|-----------------|-----------------|----------------|
|-------------------|-----------------|-----------------|-----2----------|
|---2-4-------------|-----------------|-----------------|---2---5---2----|
|-------0-(0)-0-0-0-|-2-2-2-2-2-2-2-2-|-3-3-3-3-3-3-3-3-|-3-----------3s=|


  E E E E +E  E E E   +E  E E E +E  E a E E
|-------------------|-----------------------|
|-----------------5-|-(5)-------------------|
|-----5-4-(4)-5-7---|-----7-5-4-(4)---5s7-6-|
|-5-5---------------|---------------5-------|


  +E  E a E E +E  E E E   +E  E a E E +Q   E E
|-----------------------|----------------------|
|-----------7-(7)-------|-----------7-(7)----5-|
|-(6)---7s9-------9-7-6-|-(6)---7s9--------7---|
|-----7-----------------|-----7----------------|


  +E  E E E +E  E a E E   +E  E E E +E  E a Q
|-----------------------|----------------------|
|-(5)-----------------5-|-(5)------------------|
|-----7-5-4-(4)---5s7---|-----7-5-4-(4)---5s7--|
|---------------5-------|---------------5------|


  E E a E E +E  E E E   +E  E a E E +H
|---------------------|--------------------||
|---------7-(7)-------|-----------7-(7)----||
|-6---7s9-------9-7-6-|-(6)---7s9----------||
|---7-----------------|-----7--------------||


 Outro
  Q  E E +H       W          W          W          H    H      H    H
|---------------|----------|----------|----------|-----------|-----------|
|---------------|----------|----------|----------|-----------|-----------|
|---------------|----------|----------|----------|------4----|-7----4----|
|------0-(0)----|-2--------|-3--------|-3--------|-5---------|-----------|


  +Q   E E +H       W          W          W          H    H      H    H
|-----------------|----------|----------|----------|-----------|-----------|
|-----------------|----------|----------|----------|-----------|-----------|
|-(4)----5-(5)----|-3--------|----------|----------|------2----|-5----2----|
|-----------------|----------|-6--------|-5--------|-3---------|-----------|


  Q  E E +H       W          W          W          H    H      H    H
|---------------|----------|----------|----------|-----------|-----------|
|---------------|----------|----------|----------|-----------|-----------|
|------3-(3)----|-1--------|----------|----------|------0----|-3----0----|
|---------------|----------|-4--------|-3--------|-1---------|-----------|


  Q  E E +H       W          W          W          H    H      H    H
|---------------|----------|----------|----------|-----------|-----------|
|---------------|----------|----------|----------|------5----|-8----5----|
|---------------|----------|----------|----------|-6---------|-----------|
|------6-(6)----|-4--------|-2--------|-1--------|-----------|-----------|


  Q  E E +H       W          W          W          H    H      H    H
|---------------|----------|----------|----------|-----------|-----------*|
|---------------|----------|----------|----------|-----------|-----------*|
|---------------|----------|----------|-2--------|-4---------|-----------*|
|------4-(4)----|-2--------|-0--------|----------|------1----|-4----1----*|


Duration Legend
---------------
W - whole; H - half; Q - quarter; E - 8th; S - 16th; T - 32nd; X - 64th; a - acciaccatura
+ - note tied to previous; . - note dotted; .. - note double dotted
Uncapitalized letters represent notes that are staccato (1/2 duration)
Irregular groupings are notated above the duration line
Duration letters will always appear directly above the note/fret number it represents the
duration for.  Duration letters with no fret number below them represent rests.  Multi-
bar rests are notated in the form Wxn, where n is the number of bars to rest for.  Low
melody durations appear below the staff

Tablature Legend
----------------
 h   - hammer-on
 p   - pull-off
 b   - bend
 pb  - pre-bend
 r   - bend release (if no number after the r, then release immediately)
 /\  - slide into or out of (from/to "nowhere")
 s   - legato slide
 S   - shift slide
  - natural harmonic
[n]  - artificial harmonic
n(n) - tapped harmonic
 ~   - vibrato
 tr  - trill
 T   - tap
 TP  - trem. picking
 PM  - palm muting
\n/  - tremolo bar dip; n = amount to dip
 \n  - tremolo bar down
 n/  - tremolo bar up
/n\  - tremolo bar inverted dip
 =   - hold bend; also acts as connecting device for hammers/pulls
 <>  - volume swell (louder/softer)
 x   - on rhythm slash represents muted slash
 o   - on rhythm slash represents single note slash

Misc Legend
-----------
 |  - bar
||  - double bar
||o - repeat start
o|| - repeat end
*|  - double bar (ending)
 :  - bar (freetime)
 $  - Segno
 &  - Coda
Tempo markers -  = BPM(8/16=s8/s16), where s8 = swing 8ths, s16 = swing 16ths

Suggest correction
Give kudos to tab author, rate the tab!
1 2 3 4 5
comments
print report bad tab
guest
You may want to rate the tab now too:
select rating
Wanna post a correction for this tab? Suggest correction