Oops, an error
Loading. Please wait.

Ive Seen All Good People Tab

version 2
version 2

Whole song

Interactive

by Yes
37,257 views 21 this week
2 commentsread comments
1 2 3 4 5
accurate
x 6
add to favorites
launch autoscroll
font size
0
reset
how to read this tab
guitar tuner
Tab Pro tools
  • play this tab
  • loop segment
  • change instrument
  • show fretboard
  • metronome
×
Best way to learn
"Ive Seen All Good People"
Autoscroll
slow
fast
+/-
esc
set tempo
stop
Contributor
                    Ive Seen All Good People/Your Move
                                   YES

Intro:
E|-7----7----7h9--7----7-----12---11---7--------|
B|---------0----0-------------------------------|
G|-9----9----9----9----9-----14---13---9--9---9-|
D|------------------------------------------9---|
A|----------------------------------------------|
E|----------------------------------------------|
(when you hit the 0 on the B string it's very quiet)

|-7----7----7----7-----7--------------------------------|
|--------0----0--------------7--------------9-----------|
|-9----9----9----9-----9-----------9----9-------9--6----|
|----------------------------9------------------------7-|
|----------------------------------7--------------------|
|-------------------------------------------------------|

|-7----7----7h9--7----7-----12---11---14---12---14--|
|---------0----0------------------------------------|
|-9----9----9----9----9-----14---13---14---14---14--|
|---------------------------------------------------|
|---------------------------------------------------|
|---------------------------------------------------|

|-14-------14--------14--------14--------16--------|
|--------------------------------------------------|
|-------14--------14--------14--------14--------14-|
|----14--------14--------14--------14--------14----|
|--------------------------------------------------|
|--------------------------------------------------|

Chords:
  B         A         Abm
|-----------0---------4-|
|-4---------2---------4-|
|-4---------2---------4-|
|-4---------2---------6-|
|-2---------0---------6-|
|---------------------4-|

B                  A                Abm                   A    
Take a straight and stronger course to the corner of your life.
B                    A          Abm             A
Make the white queen run so fast she hasn't got time to make you a wife.

B                           A                      Abm             A
'Cause it's time, it's time in time with your time and its news is captured
A
For the queen to use.

B               A              Abm           A
Dit Do  Dit Do  Dit Do  Dit Da Do 

Your Move
Rythym:
|-----------------------------------------|
|-----------------------------------------|
|----------4b6b4p2--------------4b6b4p2---|
|-2-2--4-----------4---2-2--4-----------4-|
|-0-0--0---------------0-0--0-------------|
|-----------------------------------------|

|-----------------------------------------|
|-----------------------------------------|
|----------6b8b6p4--------------6b8b6p4---|
|-4-4--6-----------6---4-4--6-----------6-|
|-2-2--2---------------2-2--2-------------|
|-----------------------------------------|

Chords:
A                  G                 F                 G             A    
I've seen all good people turn their heads each day so satisfied I'm on my 
way.

|-7b9--9b7p5----------7b9--9b7p5----------9b11--11b9p7---------|
|------------7--5--5-------------7--5--5---------------9--7--7-|
|--------------------------------------------------------------|
|--------------------------------------------------------------|
|--------------------------------------------------------------|
|--------------------------------------------------------------|

|-----14----14----14----14-|
|-/16----16----16----16----|
|--------------------------|
|--------------------------|
|--------------------------|
|--------------------------|

Guitar Solo:
|-------------------------------------------5---3--------------------------|
|-2p0---2p0---2p0---3--2---------------------------------------------------|            
|-----2-----2-----2-----------------------6---4---2--2p0-------------------|         
|-----------------------------------0h2h4----------------2-----0-2-0-------|     
|-------------------------------0----------------------------3-------3-0-0-|
|-------------------------0--3---------------------------------------------|

|---55----------------------------------------------------------------17p14----14-|
|-77-----55----------------------------------10p7---7---15-15-15------------17----|
|------66-----66------------------7-7-7-----------9--------------16-14------------|
|-----------77-----77---22--------------9-7---------------------------------------|
|----------------77---44---4/7-x--------------------------------------------------|
|---------------------------------------------------------------------------------|

|---0--0--0--0--0--0--0--0--15p0--15p0--15p0--15p0--15p0--15p0-|
|-0---3--5--7--9-10-12-15-17----17----17----17----17----17-----|
|--------------------------------------------------------------|
|--------------------------------------------------------------|
|--------------------------------------------------------------|
|--------------------------------------------------------------|

|--------------12----------------12-|
|-13-13--13-13-13--13-13--13--13-13-|
|-14-12--12-14-----14-12--12--14----|
|-----------------------------------|
|-----------------------------------|
|-----------------------------------|

|-------------------------|
|----------5------------5-|
|-5-5--5-5-5---5-5--5-5-5-|
|-7-5--5-7-----7-5--5-7---|
|-------------------------|
|-------------------------|

A                  G                 F                 G             A    
I've seen all good people turn their heads each day so satisfied I'm on my 
way.
comments
print report bad tab
2 comments total.
0 reply
ThePinkFloydian wrote on February 17 2011, 10:00 pm

This doesn't sound correct. Are you sure this is for standard tuning and no capo?

0 reply
kylem195 wrote on April 7 2012, 05:22 pm

The intro sounds pretty accurate however the chords are completely off. It's just an E, A, B pattern over and over for the first movement.

I want to post or [tab]
guest
You may want to rate the tab now too:
select rating
Please do not post tabs as comments. Select "correction" instead!