Oops, an error
Loading. Please wait.

Long Distance Runaround Bass Tab

version 3
version 3

Whole song

Interactive

by Yes
2,100 views 3 this week
no commentswrite comment
1 2 3 4 5
please rate
add to favorites
launch autoscroll
font size
0
reset
guitar tuner
Tab Pro tools
  • play this tab
  • loop segment
  • change instrument
  • show fretboard
  • metronome
×
Best way to learn
"Long Distance Runaround"
Autoscroll
slow
fast
+/-
esc
set tempo
stop
Contributor
Tabbed By : jaronthebassist

                         Long Distance Runaround                           


                                                                        Yes
Bass



     H           W                   W                   W                 
G||-----------|-------------------|-------------------|-------------------|
D||-----------|-------------------|-------------------|-------------------|
A||-----------|-------------------|-------------------|-------------------|
E||-----------|-------------------|-------------------|-------------------|


  W                   W                   W                 
-------------------|-------------------|-------------------|
-------------------|-------------------|-------------------|
-------------------|-------------------|-------------------|
-------------------|-------------------|-------------------|


  W                   W                   H        Q.     E   
-------------------|-------------------|---------------------|
-------------------|-------------------|---------------------|
-------------------|-------------------|---------------------|
-------------------|-------------------|------------------8--|


    E  E  E  E  E  E  E  E      E  E   E  E  E  E   E  E   
|---------------------------|-----------------------------|
|*--------------------------|----------------7--8--10-----|
|*--------------8--7--8--7--|--10--9--10--9---------------|
|---L--7--8--7--------------|--------------------------8--|


  E  E  E  E  E  E  E  E      E  E   E  E  E  E   E  E   
--------------------------|-----------------------------|
--------------------------|----------------7--8--10-----|
--------------8--7--8--7--|--10--9--10--9---------------|
--L--7--8--7--------------|--------------------------8--|


  E  E  E  E  E  E  E  E      E  E   E  E  E  E   E  E   
--------------------------|-----------------------------|
--------------------------|----------------7--8--10-----|
--------------8--7--8--7--|--10--9--10--9---------------|
--L--7--8--7--------------|--------------------------8--|


  E  E  E  E  E  E  E  E      Q.     Q.     Q     
--------------------------|----------------------|
--------------------------|----------------------|
--------------8--7--8--7--|--10------------------|
--L--7--8--7--------------|----------5------7----|


  E  Q.      Q.     E       E  Q    E  E   E  E   E   
------------------------||---------------------------|
-----------------------*||--------------------7h--9--|
-----------------------*||-------------7h--9---------|
--L--8------10------8---||--L--8---------------------|


                              |----3----|                          
  Q     Q.      Q.            E    E    E    Q      E   E  E   E   
-------14------12------|--11g12p--11h--12--(12)\------------------|
-----------------------|-----------------------------------7h--9--|
-----------------------|----------------------------7h--9---------|
-----------------------|------------------------------------------|


  Q     Q.     Q.        H        E   E  E   E   
-------11------9------|--7----------------------|
----------------------|------------------7h--9--|
----------------------|-----------7h--9---------|
----------------------|-------------------------|


    Q    H        S  S S  S    H.           S  S S  S  
|---------------------------|-------------------------|
|*---------------------7h-9-|--------------------7h-9-|
|*--7-------------7h-9------|---------------7h-9------|
|---------------------------|-------------------------|


  Q    H        S  S S  S    H.           S  S S  S  
--------------------------|-------------------------|
---------------------7h-9-|--------------------7h-9-|
--7-------------7h-9------|---------------7h-9------|
--------------------------|-------------------------|


  H.           S  S S  S    H.           S  S S  S  
-------------------------|-------------------------|
--------------------7h-9-|--------------------7h-9-|
---------------7h-9------|---------------7h-9------|
-------------------------|-------------------------|


  H.           S  S S  S    E  E  H        S  S E   
-------------------------|-------------------------|
--------------------7h-9-|-----5----------------5--|
---------------7h-9------|-----------------5h-7----|
-------------------------|-------------------------|


  H        E  S  S S  S S  S    E  E  E  E  E  E  E  E   
-----------------------------|--------------------------|
-------------------5h-7------|--------------------------|
--------------5h-7------0h-2-|--3--3--3--3--2--2--2--0--|
-----------------------------|--------------------------|


  Q.     E  E  E  E  E     Q.     E  E  Q     E   
------------------------|------------------------|
------------------------|--------------------\8--|
--L------0--------------|---------------3--------|
------------3--3--3--1--|--L------1--0-----------|


  Q.     E  S S S S S S S S    H        Q    S  S S  S    
----------------------------|---------------------------||
--L---------8-7-5-----------|---------------------7h-9-*||
------------------8-6-5-----|----------------7h-9------*||
------------------------8-6-|--L------------------------||


   Q    H        S  S S  S    H.           S  S S  S    
---------------------------|--------------------------||
*---------------------7h-9-|--------------------7h-9-*||
*--7-------------7h-9------|---------------7h-9------*||
---------------------------|--------------------------||


   H.             S  S S  S    H.           S  S S  S  
----------------------------|-------------------------|
-----------------------7h-9-|--------------------7h-9-|
------------------7h-9------|---------------7h-9------|
--(7)\----------------------|-------------------------|


  H.           S  S S  S    E  E  H        S  S E   
-------------------------|-------------------------|
--------------------7h-9-|-----5----------------5--|
---------------7h-9------|-----------------5h-7----|
-------------------------|-------------------------|


  H        E  S  S S  S S S      E  E  E  E  E  E  E  E   
----------------------------||---------------------------|
-------------------5h-7-----||*--------------------------|
--------------5h-7------0---||*--------------8--7--8--7--|
--------------------------8-||---L--7--8--7--------------|


   E  E   E  E  E  E   E  E     E  E  E  E  E  E  E  E   
-----------------------------|--------------------------|
----------------7--8--10-----|--------------------------|
--10--9--10--9---------------|--------------8--7--8--7--|
--------------------------8--|--L--7--8--7--------------|


   E  E   E  E  E  E   E  E     E  E  E  E  E  E  E  E   
-----------------------------|--------------------------|
----------------7--8--10-----|--------------------------|
--10--9--10--9---------------|--------------8--7--8--7--|
--------------------------8--|--L--7--8--7--------------|


   E  E   E  E  E  E   E  E     E  E  E  E  E  E  E  E   
-----------------------------|--------------------------|
----------------7--8--10-----|--------------------------|
--10--9--10--9---------------|--------------8--7--8--7--|
--------------------------8--|--L--7--8--7--------------|


   Q.     Q.     Q       E  Q.      Q.     E     
----------------------|------------------------||
----------------------|-----------------------*||
--10------------------|-----------------------*||
----------5------7----|--L--8------10------8---||


  E  Q    E  E   E  E   E       Q    H        S  S S  S  
---------------------------||---------------------------|
--------------------7h--9--||*---------------------7h-9-|
-------------7h--9---------||*--7-------------7h-9------|
--L--8---------------------||---------------------------|


  H.           S  S S  S       H.             S  S S  S  
--------------------------||----------------------------|
--------------------7h-9-*||-----------------------7h-9-|
---------------7h-9------*||------------------7h-9------|
--------------------------||--(7)\----------------------|


  H.           S  S S  S    H.           S  S S  S  
-------------------------|-------------------------|
--------------------7h-9-|--------------------7h-9-|
---------------7h-9------|---------------7h-9------|
-------------------------|-------------------------|


  E  E  H        S  S E     H        E  S  S S  S S  S  
-------------------------|-----------------------------|
-----5----------------5--|-------------------5h-7------|
-----------------5h-7----|--------------5h-7------0h-2-|
-------------------------|-----------------------------|


  E  E  E  E  E  E  E  E     Q.     E  E  E  E  E   
--------------------------|------------------------|
--------------------------|------------------------|
--3--3--3--3--2--2--2--0--|--L------0--------------|
--------------------------|------------3--3--3--1--|


  Q.     E  E  Q     E     Q.     E  S S S S S S S S  
------------------------|----------------------------|
--------------------\8--|--L---------8-7-5-----------|
---------------3--------|------------------8-6-5-----|
--L------1--0-----------|------------------------8-6-|


  E  E  E  E  E  E  E  E     E  E  E  E  E  E     Q      H         
--------------------------|--------------------|------------------|
--------------------------|--------------------|------------------|
--------------------------|--------4--4--6--6--|--7s----19--------|
--L--6--6--6--6--6--6--6--|--7--7--------------|------------------|


  H.             
---------------||
---------------||
--L------------||
---------------||




Duration Legend
---------------
W - whole
H - half
Q - quarter
E - 8th
S - 16th
T - 32nd
X - 64th
. - note dotted
|-n-|  - n-tuplets


Tablature Legend
----------------
L - tied note
x - dead note
g - grace note
(n) - ghost note
> - accentuded note
NH - natural harmonic
AH - artificial harmonic
TH - tapped harmonic
SH - semi harmonic
PH - pitch harmonic
h - hammer on
p - pull off
b - bend
br - bendRelease
pb - preBend
pbr - preBendRelease
brb - bendReleaseBend
\n/ - tremolo bar dip
\n - tremolo bar dive
-/n - tremolo bar Release up
/n\ - tremolo bar inverted dip
/n - tremolo bar return
-\n - tremolo bar Release down
S - shift slide
s - legato slide
/ -  slide into from below or out of upwards
\ -  slide into from above or out of downwards
~ - vibrato
W - wide vibrato
tr - trill
TP - tremolo picking
T - tapping
S - slap
P - pop
< - fade in
^ - brush up
v - brush down
comments
We did not receive enough feedback on this tab! Please rate:
print report bad tab
1 2 3 4 5
I want to post or [tab]
guest
You may want to rate the tab now too:
select rating
Please do not post tabs as comments. Select "correction" instead!