Oops, an error
Loading. Please wait.

Love Will Find A Way Bass Tab

by Yes
1,908 views 6 this week
no commentswrite comment
1 2 3 4 5
please rate
add to favorites
launch autoscroll
font size
0
reset
guitar tuner
Tab Pro tools
  • play this tab
  • loop segment
  • change instrument
  • show fretboard
  • metronome
×
Best way to learn
"Love Will Find A Way"
Autoscroll
slow
fast
+/-
esc
set tempo
stop
Contributor
-----------------------------------------------------------------------------
                          LOVE WILL FIND A WAY - Yes
-----------------------------------------------------------------------------

Tabbed by: Matt Broback
E-mail: 37hambone@gmail.com

Tuning: E A D G


INTRO   x11
|----------|
|:--------:|
|:--------:|
|----------|


INTRO CHORUS                     sss
|--------|----------|--420-42|---222--|--------|----------|--420-42|---------|
|--------|5--------2|-4---4--|------42|--------|5--------2|-4---4--|-----7\44|
|0-45--45|--540-0/4-|2-------|--------|0-45--45|--540-0/4-|2-------|---------|
|----3---|----------|--------|--------|----3---|----------|--------|---------|

                ss 
|--------|-----------|--420-42|--------|
|--------|5---------2|-4---4--|--------|
|0-45--45|--540-00/4-|2-------|--------|
|----3---|-----------|--------|--------|


VERSE 1          ss                                   ss
|--------|---------|--------|--------|--------|---------|--------|--------|
|--------|---------|-------.|--------|--------|---------|-------.|--------|
|0-------|----00-00|2-0----0|--------|0-------|----00-00|2-0----0|--------|
|--2-3--3|-2-------|----3---|--------|--2-3--3|-2-------|----3~--|--------|

                                                               ss
|--------|--------|--------|--------|--------|---------|---------|--------|
|--------|--------|--------|--------|--------|---------|---------|--------|
|0-------|----00-0|2-0----0|0---00--|0-------|----00--0|2-0----00|00--0---|
|--2-3--3|-2------|----3~--|---0----|--2-3--3|-2-------|----33---|--------|


PRECHORUS 1
|--------|--------|--------|---------|--------|---------|--------|--------|
|--------|--------|--------|---------|---00--0|2--22--2/|55555555|7777777-|
|--------|0--00--0|2--22--2|4--44--4/|5-------|---------|--------|-------0|
|3--33--3|--------|--------|---------|--------|---------|--------|--------|


CHORUS                          sss                  
|--------|---------|--420-42|---222---|--------|---------|--420-42|--------|
|-------5|--------2|-4---4--|------42-|-------5|--------2|-4---4--|--------|
|-45--45-|-540-0/4-|2-------|--------0|-45--45-|-540-0/4-|2-------|--------|
|---3----|---------|--------|---------|---3----|---------|--------|--------|


BRIDGE         ss               ss               ss
|------|---------|------|---------|------|---------|------|--------|--------|
|------|---------|------|---------|------|---------|------|--------|--------|
|2-2-2-|-00-00-00|2-2-2-|-00-00-00|2-2-2-|-00-00-00|2-2-2-|-00-00-0|0------0|
|------|---------|------|---------|------|---------|------|--------|--------|


CHORUS                          sss 
|--------|---------|--420-42|---222---|--------|---------|--420-42|--------|
|-------5|--------2|-4---4--|------42-|-------5|--------2|-4---4--|--------|
|-45--45-|-540-0/4-|2-------|--------0|-45--45-|-540-0/4-|2-------|--------|
|---3----|---------|--------|---------|---3----|---------|--------|--------|


VERSE 2                            ss                 ss                
|--------|---------|--------|--------|--------|---------|--------|---------|
|--------|---------|-------.|--------|--------|---------|-------.|---------|
|0-------|----00--0|2-0---00|------22|0-------|----00-00|2-0----0|------0--|
|--2-3--3|-2-------|----3---|--------|--2-3--3|-2-------|----3---|-------5\|
                  
                ss
|--------|--------|--------|---------|--------|--------|----------|--------|
|--------|--------|-------.|---------|--------|--------|----------|--------|
|0-------|---00-00|2-0----0|---00----|0-------|---00-00|2200------|00000002|
|--2-3--3|-2------|----3~--|--0---2/3|--2-3--3|-2------|----33-3/5|--------|


PRECHORUS 2
|--------|--------|--------|---------|--------|--------|4--44--6|--14--2|------|
|--------|--------|0--00--0|2--22--2/|5--55--5|7--77--7|--------|-------|------|
|2--22--2|4--44--4|--------|---------|--------|--------|--------|-------|-----0|
|--------|--------|--------|---------|--------|--------|--------|-------|------|


CHORUS 2                        sss                  ss
|--------|---------|--420-42|---222---|--------|----------|--420-42|--------|
|-------5|--------2|-4---4--|------42-|-------5|---------2|-4---4--|--------|
|-45--45-|-540-0/4-|2-------|--------0|-45--45-|-540-00/4-|2-------|--------|
|---3----|---------|--------|---------|---3----|----------|--------|--------|


SOLO
|---------|----------|--------|--------|---------|-----------|--------|
|---------|----------|--------|--------|---------|-----------|--------|
|---------|------00-0|2-0----0|0---00-5|---------|------00000|2-0-----|
|5/10\3--3|3/1010----|----3---|---3----|5/10\3--3|3/1010-----|----3--5|

|--------------|--------|------------|--------|--------|
|--------------|--------|------------|--------|--------|
|-----7979/10--|--------|-------00-00|2200----|00000000|
|5\0----------5|5/10\3-3|/101010-----|----3333|--------|


OUTRO          ss                sss                  
|--------|----------|--420-42|---222---|--------|---------|--420-42|~/-119\--|
|-------5|---------2|-4---4--|------42-|-------5|--------2|-4---4--|---------|
|-45--45-|-540-00/4-|2-------|--------0|-45--45-|-540-0/4-|2-------|--------0|
|---3----|----------|--------|---------|---3----|---------|--------|---------|

               ss                                                      sss
|--------|----------|--420-42|---------|--------|---------|--420-42|---222---|
|-------5|---------2|-4---4--|---------|-------5|--------2|-4---4--|------4--|
|-45--45-|-540-00/4-|2-------|--------0|-45--45-|-540-0/4-|2-------|-------40|
|---3----|----------|--------|---------|---3----|---------|--------|---------|

               ss
|--------|----------|--420-49|~/1411119\-|--------|--------|----|----|----|
|-------5|---------2|-4---4--|-----------|-------5|--------|----|----|----|
|-45--45-|-540-00/4-|2-------|----------0|-45--45-|-540~~~~|~~~~|~~--|--0-|
|---3----|----------|--------|-----------|---3----|--------|----|----|----|
comments
We did not receive enough feedback on this tab! Please rate:
print report bad tab
1 2 3 4 5
I want to post or [tab]
guest
You may want to rate the tab now too:
select rating
Please do not post tabs as comments. Select "correction" instead!