Oops, an error
Loading. Please wait.

Onward Tab

version 1
version 1

Intro

Interactive

by Yes
2,495 views 1 this week
no commentswrite comment
1 2 3 4 5
3 more votes to show rating
add to favorites
launch autoscroll
font size
0
reset
how to read this tab
guitar tuner
Autoscroll
slow
fast
+/-
esc
set tempo
stop
Help us to improve Ultimate-Guitar.com Take our survey!
×
Author
Difficulty
----------------------------------------------------------------------------
                          Onward intro- Yes
----------------------------------------------------------------------------
Tabbed by: schizoid man77
e-mail:ian_rox77@yahoo.com
    This is the intro to the song onward from the live album Keys to ascention, this is 
notes that Steve plays without all the fills and details he puts into it. It basically 
the words.
                   F
e/-----------------1---------------------------------------------------------|
b/----1-1-6-6-1----1-----------------------------------1-1-1/-6-6-6--1---1---|
g/--------------2--2-------5--3--5------2-0-2--------------------------2---2-|
d/-----------------3----------------------------3/-5-------------------------|
a/-----------------0---------------------------------------------------------|
E/1-1------------------------------------------------------------------------|
   F   Onward through the night...               Same thing on higher octave
e--1-------------------------------------------------------------------------|
b--1--5-6--3--1---1----5-------6-6--3---3-1--5----18--15--13-17----15--18----|
g--2------------2---2--------------------------------------------------------|
d--3-------------------------------------------------------------------------|
a--0-------------------------------------------------------------------------|
E----------------------------------------------------------------------------|
  ...Then on to song normal riff!

/= slide up

If you have ever heard this song on "Keys to ascension" you probably know its very 
(and its on a classical guitar). The whole intro with details is extremely hard and would be 
more harderto tab , so I put it as bare as possible, I hoped this helped.
Suggest correction
Give kudos to tab author, rate the tab!
1 2 3 4 5
comments
print report bad tab
guest
You may want to rate the tab now too:
select rating
Wanna post a correction for this tab? Suggest correction