Oops, an error
Loading. Please wait.

Owner Of A Lonely Heart Tab

version 3
version 3

Whole song

  • The Tab is based of the Studio Version (https://ww... Show more

Interactive

by Yes
7 views 6 this week
no commentswrite comment
1 2 3 4 5
2 more votes to show rating
add to favorites
launch autoscroll
font size
0
reset
how to read this tab
guitar tuner
Autoscroll
slow
fast
+/-
esc
set tempo
stop
Help us to improve Ultimate-Guitar.com Take our survey!
×
Author
Difficulty
intermediate
About this tab version
The Tab is based of the Studio Version (https://www.youtube.com/watch?v=9O6e7cgkeqw) Remember the Outro at the bottom of the tab. 2 guitars are within the song. Light distortion used for the guitar one part and chorus and a bit of delay for guitar 2. The Chorus uses mainly reverb same with the bridge. Was this info helpful? Yes No
[Intro]
                         (Very Heavy Distortion Used) 
e|---------------------------------------------------------------------------|
B|---------------------------------------------------------------------------|
G|--2---4-5--7-7\----2---4-5--7-7\---------2---4-5--7-7----------------------|
D|--2---4-5--7-7\----2---4-5--7-7\---5-----2---4-5--7-7----------------------|
A|--0---2-3--5-5\----0---2-3--5-5\---5-----0---2-3--5-5----------------------|
E|-----------------------------------3---------------------------------------|


[Verse]
                         (Light Distortion Used) 
e|---------------------------------------------------------------------------|
B|---------------------------------------------------------------------------|
G|--2---4-5--7-7---------2---4-5--7-7------------------2--4-5--7-7-----------|
D|--2---4-5--7-7---5-5---2---4-5--7-7------------------2--4-5--7-7----5-5----|
A|--0---2-3--5-5---5-5---0---2-3--5-5-------3----------0--2-3--5-5----5-5----|
E|-----------------3-3------------------3-5---5-3~--------------------3-3----|
          (This part of the verse come in on the 6th Bar of the Verse)
                           Part below is palm muted
e|-----------0---------------------------------------------------------------|
B|----3---------3---------------------3----------------3---------------------|
G|------0-----------2-----------------------2---0------------2---------------| (x9)
D|----------------------2/4----0--------------------0------------0-----------|
A|-0-------------------------------------------------------------------------|
E|---------------------------------------------------------------------------|
   (On the 5th Playing of the melodic part {ABOVE} the last bit is altered)
e|------------0--------------------------------------------------------------|
B|-----3---------3--------------------3-----3-1-3-1--------------------------|
G|--------0----------2----------------------2-0-2-0--2-----------------------|
D|----------------------2/4---0--------------------------2-------------------|
A|-0-------------------------------------------------------------------------|
E|---------------------------------------------------------------------------|


[Chorus]

e|--0-----12H---10------10---------------------------------------------------|
B|--5---------------8--------8-----------------------------------------------|
G|--7------------------------------------------------------------------------| (x4)
D|---------------------------------------------------------------------------|
A|---------------------------------------------------------------------------|
E|---------------------------------------------------------------------------|

[Verse 2]

              e|---------------------------------------------------------------------------|
              B|---------------------------------------------------------------------------|
(Guitar 1)    G|--2---4-5--7-7-------------------------------/2----------------------------| (x8)
              D|--2---4-5--7-7--5-5--(end of 6th playing)--------2~-2p0--------------------|
              A|--0---2-3--5-5--5-5-------------------------------------3~-----------------|
              E|----------------3-3--------------------------------------------------------| 



                                       (Palm Muted)
(Guitar 2)   e|---------------0------------------------------------------------------------|
             B|-----3--------------3--------------------3------------------3---------------|
             G|---------0--------------2--------------------2----0-------------2-----------| (x8) 
             D|----------------------------2/4-----0-----------------0-------------0-------| 
             A|-0--------------------------------------------------------------------------|
             E|----------------------------------------------------------------------------|

[Chorus]

e|--0-----12H---10------10---------------------------------------------------|
B|--5---------------8--------8-----------------------------------------------|
G|--7------------------------------------------------------------------------| (x4)
D|---------------------------------------------------------------------------|
A|---------------------------------------------------------------------------|
E|---------------------------------------------------------------------------|


[Bridge]

e|--5-5-x-x-5-5-x-x-5-5-x-x-5-5-x-x-5-5-x-x-5-5-x-x-3-3-x-x-3-3-x-x----------|
B|--5-5-x-x-5-5-x-x-5-5-x-x-5-5-x-x-5-5-x-x-5-5-x-x-3-3-x-x-3-3-x-x----------|
G|--6-6-x-x-6-6-x-x-6-6-x-x-6-6-x-x-5-5-x-x-5-5-x-x-4-4-x-x-4-4-x-x----------| (x6)
D|--7-7-x-x-7-7-x-x-7-7-x-x-7-7-x-x-x-x-x-x-x-x-x-x-5-5-x-x-5-5-x-x----------|
A|--x-x-x-x-x-x-x-x-x-x-x-x-x-x-x-x-x-x-x-x-x-x-x-x-x-x-x-x-x-x-x-x----------|
E|--x-x-x-x-x-x-x-x-x-x-x-x-x-x-x-x-x-x-x-x-x-x-x-x-x-x-x-x-x-x-x-x----------|


[Solo]

e|-----------------------------10\8---8b--22b----------------------------------------|
B|--8--10br--8---8br---5/8----------------------8-10b--10---13\10----8---8b----------|
G|-----------------------------------------------------------------------------------| 
D|-----------------------------------------------------------------------------------|
A|-----------------------------------------------------------------------------------|
E|-----------------------------------------------------------------------------------|

e|--8---9--------10---8--------------------------------------------------------------|
B|----------10------------10-----------------------------10-----8b-------20br--------|
G|-----------------------------9-----------------------------9-----------------------| 
D|-----------------------------------------------------------------------------------|
A|-----------------------------------5-----5/7\5/7-----------------------------------|
E|-----------------------------------------------------------------------------------|

e|------------17---20--19h20p19p17-------17------------------------------------------|
B|---17---20-------------------------20-------20p17h20p17------17--------------------|
G|---------------------------------------------------------19------19p17------19-17b-| 
D|------------------------------------------------------------------------19---------|
A|-----------------------------------------------------------------------------------|
E|-----------------------------------------------------------------------------------|


[Outro]

Verse (Guitar 2)
Chorus
Bridge till end



************************************

| \   Slide down
| ~   Vibrato
| /   Slide up
| p   Pull-off
| x   Dead note
| b   Bend
| br  Bend release
| h   Hammer-on

************************************
Suggest correction
Give kudos to tab author, rate the tab!
1 2 3 4 5
comments
print report bad tab
guest
You may want to rate the tab now too:
select rating
Wanna post a correction for this tab? Suggest correction